  0
SECTION
  2
HEADER
  9
$ACADVER
  1
AC1015
  9
$ACADMAINTVER
 70
     6
  9
$DWGCODEPAGE
  3
ANSI_1252
  9
$INSBASE
 10
0.0
 20
0.0
 30
0.0
  9
$EXTMIN
 10
-45.4276501722
 20
-40.0
 30
0.0
  9
$EXTMAX
 10
45.4276501722
 20
0.0
 30
0.0
  9
$LIMMIN
 10
0.0
 20
0.0
  9
$LIMMAX
 10
420.0
 20
297.0
  9
$ORTHOMODE
 70
     0
  9
$REGENMODE
 70
     1
  9
$FILLMODE
 70
     1
  9
$QTEXTMODE
 70
     0
  9
$MIRRTEXT
 70
     1
  9
$LTSCALE
 40
1.0
  9
$ATTMODE
 70
     1
  9
$TEXTSIZE
 40
3.5
  9
$TRACEWID
 40
1.0
  9
$TEXTSTYLE
  7
Standard
  9
$CLAYER
  8
0
  9
$CELTYPE
  6
ByLayer
  9
$CECOLOR
 62
   256
  9
$CELTSCALE
 40
1.0
  9
$DISPSILH
 70
     0
  9
$DIMSCALE
 40
1.0
  9
$DIMASZ
 40
3.302
  9
$DIMEXO
 40
1.0
  9
$DIMDLI
 40
3.75
  9
$DIMRND
 40
0.0
  9
$DIMDLE
 40
0.0
  9
$DIMEXE
 40
1.0
  9
$DIMTP
 40
0.0
  9
$DIMTM
 40
0.0
  9
$DIMTXT
 40
3.5
  9
$DIMCEN
 40
2.5
  9
$DIMTSZ
 40
0.0
  9
$DIMTOL
 70
     0
  9
$DIMLIM
 70
     0
  9
$DIMTIH
 70
     1
  9
$DIMTOH
 70
     1
  9
$DIMSE1
 70
     0
  9
$DIMSE2
 70
     0
  9
$DIMTAD
 70
     1
  9
$DIMZIN
 70
     1
  9
$DIMBLK
  1

  9
$DIMASO
 70
     1
  9
$DIMSHO
 70
     1
  9
$DIMPOST
  1

  9
$DIMAPOST
  1

  9
$DIMALT
 70
     0
  9
$DIMALTD
 70
     3
  9
$DIMALTF
 40
0.0393700787
  9
$DIMLFAC
 40
1.0
  9
$DIMTOFL
 70
     1
  9
$DIMTVP
 40
0.0
  9
$DIMTIX
 70
     0
  9
$DIMSOXD
 70
     0
  9
$DIMSAH
 70
     0
  9
$DIMBLK1
  1

  9
$DIMBLK2
  1

  9
$DIMSTYLE
  2
ISO-25
  9
$DIMCLRD
 70
     0
  9
$DIMCLRE
 70
     0
  9
$DIMCLRT
 70
     0
  9
$DIMTFAC
 40
1.0
  9
$DIMGAP
 40
1.524
  9
$DIMJUST
 70
     0
  9
$DIMSD1
 70
     0
  9
$DIMSD2
 70
     0
  9
$DIMTOLJ
 70
     0
  9
$DIMTZIN
 70
     1
  9
$DIMALTZ
 70
     0
  9
$DIMALTTZ
 70
     0
  9
$DIMUPT
 70
     0
  9
$DIMDEC
 70
     2
  9
$DIMTDEC
 70
     2
  9
$DIMALTU
 70
     2
  9
$DIMALTTD
 70
     3
  9
$DIMTXSTY
  7
Standard
  9
$DIMAUNIT
 70
     0
  9
$DIMADEC
 70
     2
  9
$DIMALTRND
 40
0.0
  9
$DIMAZIN
 70
     0
  9
$DIMDSEP
 70
    44
  9
$DIMATFIT
 70
     3
  9
$DIMFRAC
 70
     0
  9
$DIMLDRBLK
  1

  9
$DIMLUNIT
 70
     2
  9
$DIMLWD
 70
    -2
  9
$DIMLWE
 70
    -2
  9
$DIMTMOVE
 70
     0
  9
$LUNITS
 70
     2
  9
$LUPREC
 70
     2
  9
$SKETCHINC
 40
1.0
  9
$FILLETRAD
 40
10.0
  9
$AUNITS
 70
     0
  9
$AUPREC
 70
     2
  9
$MENU
  1
.
  9
$ELEVATION
 40
0.0
  9
$PELEVATION
 40
0.0
  9
$THICKNESS
 40
0.0
  9
$LIMCHECK
 70
     0
  9
$CHAMFERA
 40
0.0
  9
$CHAMFERB
 40
0.0
  9
$CHAMFERC
 40
0.0
  9
$CHAMFERD
 40
0.0
  9
$SKPOLY
 70
     0
  9
$TDCREATE
 40
2458862.404901979
  9
$TDUCREATE
 40
2458862.404901979
  9
$TDUPDATE
 40
2458862.404936447
  9
$TDUUPDATE
 40
2458862.404936447
  9
$TDINDWG
 40
0.0000000116
  9
$TDUSRTIMER
 40
0.0000000116
  9
$USRTIMER
 70
     1
  9
$ANGBASE
 50
0.0
  9
$ANGDIR
 70
     0
  9
$PDMODE
 70
     0
  9
$PDSIZE
 40
-1.0
  9
$PLINEWID
 40
0.0
  9
$SPLFRAME
 70
     0
  9
$SPLINETYPE
 70
     6
  9
$SPLINESEGS
 70
     8
  9
$HANDSEED
  5
384
  9
$SURFTAB1
 70
     6
  9
$SURFTAB2
 70
     6
  9
$SURFTYPE
 70
     6
  9
$SURFU
 70
     6
  9
$SURFV
 70
     6
  9
$UCSBASE
  2

  9
$UCSNAME
  2

  9
$UCSORG
 10
0.0
 20
0.0
 30
0.0
  9
$UCSXDIR
 10
1.0
 20
0.0
 30
0.0
  9
$UCSYDIR
 10
0.0
 20
1.0
 30
0.0
  9
$UCSORTHOREF
  2

  9
$UCSORTHOVIEW
 70
     0
  9
$UCSORGTOP
 10
0.0
 20
0.0
 30
0.0
  9
$UCSORGBOTTOM
 10
0.0
 20
0.0
 30
0.0
  9
$UCSORGLEFT
 10
0.0
 20
0.0
 30
0.0
  9
$UCSORGRIGHT
 10
0.0
 20
0.0
 30
0.0
  9
$UCSORGFRONT
 10
0.0
 20
0.0
 30
0.0
  9
$UCSORGBACK
 10
0.0
 20
0.0
 30
0.0
  9
$PUCSBASE
  2

  9
$PUCSNAME
  2

  9
$PUCSORG
 10
0.0
 20
0.0
 30
0.0
  9
$PUCSXDIR
 10
1.0
 20
0.0
 30
0.0
  9
$PUCSYDIR
 10
0.0
 20
1.0
 30
0.0
  9
$PUCSORTHOREF
  2

  9
$PUCSORTHOVIEW
 70
     0
  9
$PUCSORGTOP
 10
0.0
 20
0.0
 30
0.0
  9
$PUCSORGBOTTOM
 10
0.0
 20
0.0
 30
0.0
  9
$PUCSORGLEFT
 10
0.0
 20
0.0
 30
0.0
  9
$PUCSORGRIGHT
 10
0.0
 20
0.0
 30
0.0
  9
$PUCSORGFRONT
 10
0.0
 20
0.0
 30
0.0
  9
$PUCSORGBACK
 10
0.0
 20
0.0
 30
0.0
  9
$USERI1
 70
     0
  9
$USERI2
 70
     0
  9
$USERI3
 70
     0
  9
$USERI4
 70
     0
  9
$USERI5
 70
     0
  9
$USERR1
 40
0.0
  9
$USERR2
 40
0.0
  9
$USERR3
 40
0.0
  9
$USERR4
 40
0.0
  9
$USERR5
 40
0.0
  9
$WORLDVIEW
 70
     1
  9
$SHADEDGE
 70
     3
  9
$SHADEDIF
 70
    70
  9
$TILEMODE
 70
     1
  9
$MAXACTVP
 70
    64
  9
$PINSBASE
 10
0.0
 20
0.0
 30
0.0
  9
$PLIMCHECK
 70
     0
  9
$PEXTMIN
 10
-45.4276501722
 20
-8.0
 30
0.0
  9
$PEXTMAX
 10
45.4276501722
 20
14.5
 30
0.0
  9
$PLIMMIN
 10
-52.4981015609
 20
-10.6514192708
  9
$PLIMMAX
 10
52.4981015609
 20
63.5883203104
  9
$UNITMODE
 70
     0
  9
$VISRETAIN
 70
     1
  9
$PLINEGEN
 70
     0
  9
$PSLTSCALE
 70
     1
  9
$TREEDEPTH
 70
  3020
  9
$CMLSTYLE
  2
Standard
  9
$CMLJUST
 70
     0
  9
$CMLSCALE
 40
20.0
  9
$PROXYGRAPHICS
 70
     1
  9
$MEASUREMENT
 70
     1
  9
$CELWEIGHT
370
    -1
  9
$ENDCAPS
280
     0
  9
$JOINSTYLE
280
     0
  9
$LWDISPLAY
290
     1
  9
$INSUNITS
 70
     4
  9
$HYPERLINKBASE
  1

  9
$STYLESHEET
  1

  9
$XEDIT
290
     1
  9
$CEPSNTYPE
380
     0
  9
$PSTYLEMODE
290
     1
  9
$FINGERPRINTGUID
  2
{38b34b3b-87da-4689-b1dc-e1a388fd13ed}
  9
$VERSIONGUID
  2
{FAEB1C32-E019-11D5-929B-00C0DF256EC4}
  9
$EXTNAMES
290
     1
  9
$PSVPSCALE
 40
0.0
  9
$OLESTARTUP
290
     0
  0
ENDSEC
  0
SECTION
  2
CLASSES
  0
CLASS
  1
ACDBDICTIONARYWDFLT
  2
AcDbDictionaryWithDefault
  3
ObjectDBX Classes
 90
        0
280
     0
281
     0
  0
CLASS
  1
VISUALSTYLE
  2
AcDbVisualStyle
  3
ObjectDBX Classes
 90
     4095
280
     0
281
     0
  0
CLASS
  1
MATERIAL
  2
AcDbMaterial
  3
ObjectDBX Classes
 90
     1153
280
     0
281
     0
  0
CLASS
  1
SCALE
  2
AcDbScale
  3
ObjectDBX Classes
 90
     1153
280
     0
281
     0
  0
CLASS
  1
TABLESTYLE
  2
AcDbTableStyle
  3
ObjectDBX Classes
 90
     4095
280
     0
281
     0
  0
CLASS
  1
MLEADERSTYLE
  2
AcDbMLeaderStyle
  3
ACDB_MLEADERSTYLE_CLASS
 90
     4095
280
     0
281
     0
  0
CLASS
  1
SUN
  2
AcDbSun
  3
SCENEOE
 90
     1153
280
     0
281
     0
  0
CLASS
  1
ACDBPLACEHOLDER
  2
AcDbPlaceHolder
  3
ObjectDBX Classes
 90
        0
280
     0
281
     0
  0
CLASS
  1
LAYOUT
  2
AcDbLayout
  3
ObjectDBX Classes
 90
        0
280
     0
281
     0
  0
ENDSEC
  0
SECTION
  2
TABLES
  0
TABLE
  2
VPORT
  5
8
330
0
100
AcDbSymbolTable
 70
     1
  0
VPORT
  5
29
330
8
100
AcDbSymbolTableRecord
100
AcDbViewportTableRecord
  2
*Active
 70
     0
 10
0.0
 20
0.0
 11
1.0
 21
1.0
 12
0.0
 22
-20.0
 13
0.0
 23
0.0
 14
10.0
 24
10.0
 15
10.0
 25
10.0
 16
0.0
 26
0.0
 36
1.0
 17
0.0
 27
0.0
 37
0.0
 40
40.8
 41
2.2713825086
 42
50.0
 43
0.0
 44
0.0
 50
0.0
 51
0.0
 71
     0
 72
   100
 73
     1
 74
     3
 75
     0
 76
     0
 77
     0
 78
     0
281
     0
 65
     1
110
0.0
120
0.0
130
0.0
111
1.0
121
0.0
131
0.0
112
0.0
122
1.0
132
0.0
 79
     0
146
0.0
  0
ENDTAB
  0
TABLE
  2
LTYPE
  5
5
330
0
100
AcDbSymbolTable
 70
     6
  0
LTYPE
  5
14
330
5
100
AcDbSymbolTableRecord
100
AcDbLinetypeTableRecord
  2
ByBlock
 70
     0
  3

 72
    65
 73
     0
 40
0.0
  0
LTYPE
  5
15
330
5
100
AcDbSymbolTableRecord
100
AcDbLinetypeTableRecord
  2
ByLayer
 70
     0
  3

 72
    65
 73
     0
 40
0.0
  0
LTYPE
  5
16
330
5
100
AcDbSymbolTableRecord
100
AcDbLinetypeTableRecord
  2
Continuous
 70
     0
  3
Solid line
 72
    65
 73
     0
 40
0.0
  0
LTYPE
  5
6E
330
5
100
AcDbSymbolTableRecord
100
AcDbLinetypeTableRecord
  2
HIDDEN
 70
     0
  3
Hidden __ __ __ __ __ __ __ __ __ __ __ __ __ __
 72
    65
 73
     2
 40
1.905
 49
1.27
 74
     0
 49
-0.635
 74
     0
  0
LTYPE
  5
6F
330
5
100
AcDbSymbolTableRecord
100
AcDbLinetypeTableRecord
  2
PHANTOM
 70
     0
  3
Phantom ______  __  __  ______  __  __  ______
 72
    65
 73
     6
 40
12.7
 49
6.35
 74
     0
 49
-1.27
 74
     0
 49
1.27
 74
     0
 49
-1.27
 74
     0
 49
1.27
 74
     0
 49
-1.27
 74
     0
  0
LTYPE
  5
70
330
5
100
AcDbSymbolTableRecord
100
AcDbLinetypeTableRecord
  2
CENTER
 70
     0
  3
Center ____ _ ____ _ ____ _ ____ _ ____ _ ____
 72
    65
 73
     4
 40
10.16
 49
6.35
 74
     0
 49
-1.27
 74
     0
 49
1.27
 74
     0
 49
-1.27
 74
     0
  0
LTYPE
  5
71
330
5
100
AcDbSymbolTableRecord
100
AcDbLinetypeTableRecord
  2
CENTERX2
 70
     0
  3
Center (2x) ________  __  ________  __  _____
 72
    65
 73
     4
 40
20.32
 49
12.7
 74
     0
 49
-2.54
 74
     0
 49
2.54
 74
     0
 49
-2.54
 74
     0
  0
LTYPE
  5
72
330
5
100
AcDbSymbolTableRecord
100
AcDbLinetypeTableRecord
  2
DOT2
 70
     0
  3
Dot (.5x) ........................................
 72
    65
 73
     2
 40
0.635
 49
0.0
 74
     0
 49
-0.635
 74
     0
  0
ENDTAB
  0
TABLE
  2
LAYER
  5
2
330
0
100
AcDbSymbolTable
 70
     1
  0
LAYER
  5
10
330
2
100
AcDbSymbolTableRecord
100
AcDbLayerTableRecord
  2
0
 70
     0
 62
     7
  6
Continuous
370
    -3
390
F
  0
ENDTAB
  0
TABLE
  2
STYLE
  5
3
330
0
100
AcDbSymbolTable
 70
     1
  0
STYLE
  5
11
330
3
100
AcDbSymbolTableRecord
100
AcDbTextStyleTableRecord
  2
Standard
 70
     0
 40
0.0
 41
1.0
 50
0.0
 71
     0
 42
3.5
  3
txt
  4

  0
ENDTAB
  0
TABLE
  2
VIEW
  5
6
330
0
100
AcDbSymbolTable
 70
     0
  0
ENDTAB
  0
TABLE
  2
UCS
  5
7
330
0
100
AcDbSymbolTable
 70
     0
  0
ENDTAB
  0
TABLE
  2
APPID
  5
9
330
0
100
AcDbSymbolTable
 70
     1
  0
APPID
  5
12
330
9
100
AcDbSymbolTableRecord
100
AcDbRegAppTableRecord
  2
ACAD
 70
     0
  0
ENDTAB
  0
TABLE
  2
DIMSTYLE
  5
A
330
0
100
AcDbSymbolTable
 70
     1
100
AcDbDimStyleTable
  0
DIMSTYLE
105
27
330
A
100
AcDbSymbolTableRecord
100
AcDbDimStyleTableRecord
  2
ISO-25
 70
     0
 41
2.5
 42
0.625
 43
3.75
 44
1.25
 73
     0
 74
     0
 77
     1
 78
     8
140
2.5
141
2.5
143
0.0393700787
147
0.625
171
     3
172
     1
178
     0
271
     2
272
     2
274
     3
278
    44
283
     0
284
     8
340
11
  0
ENDTAB
  0
TABLE
  2
BLOCK_RECORD
  5
1
330
0
100
AcDbSymbolTable
 70
     7
  0
BLOCK_RECORD
  5
1F
330
1
100
AcDbSymbolTableRecord
100
AcDbBlockTableRecord
  2
*Model_Space
340
22
  0
BLOCK_RECORD
  5
1B
330
1
100
AcDbSymbolTableRecord
100
AcDbBlockTableRecord
  2
*Paper_Space
340
1E
  0
BLOCK_RECORD
  5
23
330
1
100
AcDbSymbolTableRecord
100
AcDbBlockTableRecord
  2
*Paper_Space0
340
26
  0
BLOCK_RECORD
  5
16A
330
1
100
AcDbSymbolTableRecord
100
AcDbBlockTableRecord
  2
*Paper_Space1
340
16B
  0
BLOCK_RECORD
  5
1CA
330
1
100
AcDbSymbolTableRecord
100
AcDbBlockTableRecord
  2
*Paper_Space2
340
1CB
  0
BLOCK_RECORD
  5
20E
330
1
100
AcDbSymbolTableRecord
100
AcDbBlockTableRecord
  2
*Paper_Space3
340
20F
  0
BLOCK_RECORD
  5
242
330
1
100
AcDbSymbolTableRecord
100
AcDbBlockTableRecord
  2
*Paper_Space4
340
243
  0
BLOCK_RECORD
  5
2A8
330
1
100
AcDbSymbolTableRecord
100
AcDbBlockTableRecord
  2
*Paper_Space5
340
2A9
  0
BLOCK_RECORD
  5
30D
330
1
100
AcDbSymbolTableRecord
100
AcDbBlockTableRecord
  2
*Paper_Space6
340
30E
  0
ENDTAB
  0
ENDSEC
  0
SECTION
  2
BLOCKS
  0
BLOCK
  5
20
330
1F
100
AcDbEntity
  8
0
100
AcDbBlockBegin
  2
*Model_Space
 70
     0
 10
0.0
 20
0.0
 30
0.0
  3
*Model_Space
  1

  0
ENDBLK
  5
21
330
1F
100
AcDbEntity
  8
0
100
AcDbBlockEnd
  0
BLOCK
  5
1C
330
1B
100
AcDbEntity
 67
     1
  8
0
100
AcDbBlockBegin
  2
*Paper_Space
 70
     0
 10
0.0
 20
0.0
 30
0.0
  3
*Paper_Space
  1

  0
ENDBLK
  5
1D
330
1B
100
AcDbEntity
 67
     1
  8
0
100
AcDbBlockEnd
  0
BLOCK
  5
24
330
23
100
AcDbEntity
  8
0
100
AcDbBlockBegin
  2
*Paper_Space0
 70
     0
 10
0.0
 20
0.0
 30
0.0
  3
*Paper_Space0
  1

  0
SPLINE
  5
132
330
23
100
AcDbEntity
  8
0
  6
Continuous
 62
     7
370
    25
100
AcDbSpline
210
0.0
220
0.0
230
1.0
 70
     8
 71
     3
 72
    10
 73
     6
 74
     0
 42
0.000000001
 43
0.00000001
 40
0.0
 40
0.0
 40
0.0
 40
0.0
 40
0.5
 40
0.5
 40
1.0
 40
1.0
 40
1.0
 40
1.0
 10
-1.075786791543281
 20
2.5
 30
0.0
 10
-0.9438612792162897
 20
2.5
 30
0.0
 10
-0.8138652772006414
 20
2.447074990637266
 30
0.0
 10
-0.6265245908325667
 20
2.263686660269153
 30
0.0
 10
-0.5702775290957924
 20
2.133548419450588
 30
0.0
 10
-0.5702775290957924
 20
2.0
 30
0.0
  0
SPLINE
  5
135
330
23
100
AcDbEntity
  8
0
  6
Continuous
 62
     7
370
    25
100
AcDbSpline
210
0.0
220
0.0
230
1.0
 70
     8
 71
     3
 72
    14
 73
    10
 74
     0
 42
0.000000001
 43
0.00000001
 40
0.0
 40
0.0
 40
0.0
 40
0.0
 40
0.25
 40
0.25
 40
0.5
 40
0.5
 40
0.75
 40
0.75
 40
1.0
 40
1.0
 40
1.0
 40
1.0
 10
0.0
 20
2.0
 30
0.0
 10
0.0
 20
2.132227754517074
 30
0.0
 10
-0.0260797118540358
 20
2.262045787394996
 30
0.0
 10
-0.1265451583602091
 20
2.504247322223715
 30
0.0
 10
-0.2009359513455086
 20
2.615218316034781
 30
0.0
 10
-0.3853790798027737
 20
2.799523642360057
 30
0.0
 10
-0.4968554941371141
 20
2.873933928814747
 30
0.0
 10
-0.7371354688636422
 20
2.973559008989208
 30
0.0
 10
-0.8681691967385962
 20
3.0
 30
0.0
 10
-1.000000000000001
 20
3.0
 30
0.0
  0
SPLINE
  5
138
330
23
100
AcDbEntity
  8
0
  6
Continuous
 62
     7
370
    25
100
AcDbSpline
210
0.0
220
0.0
230
1.0
 70
     8
 71
     3
 72
    12
 73
     8
 74
     0
 42
0.000000001
 43
0.00000001
 40
0.0
 40
0.0
 40
0.0
 40
0.0
 40
0.25
 40
0.25
 40
0.5
 40
0.5
 40
1.0
 40
1.0
 40
1.0
 40
1.0
 10
-0.0045839034752727
 20
0.0
 30
0.0
 10
-0.0155076577473719
 20
0.0
 30
0.0
 10
-0.0459871088869419
 20
0.0201648832644976
 30
0.0
 10
-0.1285332229774769
 20
0.0854064995171287
 30
0.0
 10
-0.1792713765968387
 20
0.1292157065372716
 30
0.0
 10
-0.3406413000412966
 20
0.274488563250924
 30
0.0
 10
-0.4587155045682155
 20
0.3879350709181345
 30
0.0
 10
-0.5702775290957924
 20
0.5
 30
0.0
  0
SPLINE
  5
13D
330
23
100
AcDbEntity
  8
0
  6
Continuous
 62
     7
370
    25
100
AcDbSpline
210
0.0
220
0.0
230
1.0
 70
     8
 71
     3
 72
    12
 73
     8
 74
     0
 42
0.000000001
 43
0.00000001
 40
0.0
 40
0.0
 40
0.0
 40
0.0
 40
0.4999999999999969
 40
0.4999999999999969
 40
0.7499999999999984
 40
0.7499999999999984
 40
1.0
 40
1.0
 40
1.0
 40
1.0
 10
-1.000000000000001
 20
3.0
 30
0.0
 10
-1.037243194641092
 20
3.0
 30
0.0
 10
-1.075672933485677
 20
3.137144320976344
 30
0.0
 10
-1.125207100310551
 20
3.520970288629007
 30
0.0
 10
-1.139887019257432
 20
3.674345416667077
 30
0.0
 10
-1.164657348438298
 20
4.031206247733579
 30
0.0
 10
-1.174157962632858
 20
4.225895278127298
 30
0.0
 10
-1.180447665410547
 20
4.437500000000003
 30
0.0
  0
SPLINE
  5
13F
330
23
100
AcDbEntity
  8
0
  6
Continuous
 62
     7
370
    25
100
AcDbSpline
210
0.0
220
0.0
230
1.0
 70
    24
 71
     3
 72
    16
 73
    12
 74
     0
 42
0.000000001
 43
0.00000001
 40
0.0
 40
0.0
 40
0.0
 40
0.0
 40
0.25
 40
0.25
 40
0.5
 40
0.5
 40
0.75
 40
0.75
 40
0.875
 40
0.875
 40
1.0
 40
1.0
 40
1.0
 40
1.0
 10
0.0
 20
4.156249999999998
 30
0.0
 10
0.0
 20
3.842325427806981
 30
0.0
 10
0.0
 20
3.55225587390329
 30
0.0
 10
0.0
 20
3.018855320924058
 30
0.0
 10
0.0
 20
2.788062623114157
 30
0.0
 10
0.0
 20
2.402185663307607
 30
0.0
 10
0.0
 20
2.253944918504864
 30
0.0
 10
0.0
 20
2.102285665705705
 30
0.0
 10
0.0
 20
2.063845306167559
 30
0.0
 10
0.0
 20
2.012912437206408
 30
0.0
 10
0.0
 20
2.0
 30
0.0
 10
0.0
 20
2.0
 30
0.0
  0
SPLINE
  5
140
330
23
100
AcDbEntity
  8
0
  6
Continuous
 62
     7
370
    25
100
AcDbSpline
210
0.0
220
0.0
230
1.0
 70
     8
 71
     3
 72
    26
 73
    22
 74
     0
 42
0.000000001
 43
0.00000001
 40
0.0
 40
0.0
 40
0.0
 40
0.0
 40
0.1249999999999996
 40
0.1249999999999996
 40
0.2499999999999992
 40
0.2499999999999992
 40
0.3749999999999988
 40
0.3749999999999988
 40
0.4999999999999983
 40
0.4999999999999983
 40
0.5624999999999981
 40
0.5624999999999981
 40
0.6249999999999979
 40
0.6249999999999979
 40
0.749999999999998
 40
0.749999999999998
 40
0.8124999999999984
 40
0.8124999999999984
 40
0.8749999999999988
 40
0.8749999999999988
 40
1.0
 40
1.0
 40
1.0
 40
1.0
 10
-1.180447665410547
 20
4.437499999999998
 30
0.0
 10
-1.178538844478366
 20
5.173388582365216
 30
0.0
 10
-1.176098134866997
 20
5.880706003544229
 30
0.0
 10
-1.170070267771568
 20
7.240829968009677
 30
0.0
 10
-1.16648438843886
 20
7.8936300179184
 30
0.0
 10
-1.157929879158168
 20
9.142905192967488
 30
0.0
 10
-1.153049225564601
 20
9.725597036334365
 30
0.0
 10
-1.141959902156469
 20
10.80058410046229
 30
0.0
 10
-1.135740906137921
 20
11.2946936796673
 30
0.0
 10
-1.125123178935167
 20
11.96926760029289
 30
0.0
 10
-1.121377837164834
 20
12.18206760224984
 30
0.0
 10
-1.113537994013487
 20
12.57824923339146
 30
0.0
 10
-1.109429549421455
 20
12.76255075110748
 30
0.0
 10
-1.096471577291668
 20
13.27495485123198
 30
0.0
 10
-1.086996819277826
 20
13.56279714810795
 30
0.0
 10
-1.07115116220962
 20
13.91291129385768
 30
0.0
 10
-1.065589333720553
 20
14.01590121187336
 30
0.0
 10
-1.053981842696141
 20
14.19184003052477
 30
0.0
 10
-1.047920690803464
 20
14.26518267136057
 30
0.0
 10
-1.028859691612847
 20
14.44151410034195
 30
0.0
 10
-1.015076621010465
 20
14.5
 30
0.0
 10
-1.000000000000001
 20
14.5
 30
0.0
  0
SPLINE
  5
142
330
23
100
AcDbEntity
  8
0
  6
Continuous
 62
     7
370
    25
100
AcDbSpline
210
0.0
220
0.0
230
1.0
 70
    24
 71
     3
 72
    26
 73
    22
 74
     0
 42
0.000000001
 43
0.00000001
 40
0.0
 40
0.0
 40
0.0
 40
0.0
 40
0.1250000000000008
 40
0.1250000000000008
 40
0.187500000000001
 40
0.187500000000001
 40
0.2500000000000011
 40
0.2500000000000011
 40
0.3750000000000013
 40
0.3750000000000013
 40
0.4375000000000011
 40
0.4375000000000011
 40
0.500000000000001
 40
0.500000000000001
 40
0.6250000000000007
 40
0.6250000000000007
 40
0.7500000000000004
 40
0.7500000000000004
 40
0.8750000000000002
 40
0.8750000000000002
 40
1.0
 40
1.0
 40
1.0
 40
1.0
 10
0.0
 20
13.5
 30
0.0
 10
0.0
 20
13.5
 30
0.0
 10
0.0
 20
13.44615984085317
 30
0.0
 10
0.0
 20
13.28524649517042
 30
0.0
 10
0.0
 20
13.21819496826492
 30
0.0
 10
0.0
 20
13.05667658072264
 30
0.0
 10
0.0
 20
12.9617375945165
 30
0.0
 10
0.0
 20
12.63841086144333
 30
0.0
 10
0.0
 20
12.3721750188279
 30
0.0
 10
0.0
 20
11.89763871064429
 30
0.0
 10
0.0
 20
11.72687425644342
 30
0.0
 10
0.0
 20
11.35962438848286
 30
0.0
 10
0.0
 20
11.16232784800671
 30
0.0
 10
0.0
 20
10.53618545578306
 30
0.0
 10
0.0
 20
10.07725185873184
 30
0.0
 10
0.0
 20
9.078239180374249
 30
0.0
 10
0.0
 20
8.53662530683213
 30
0.0
 10
0.0
 20
7.374202072842282
 30
0.0
 10
0.0
 20
6.766608842712748
 30
0.0
 10
0.0
 20
5.500348019077156
 30
0.0
 10
0.0
 20
4.841686850488512
 30
0.0
 10
0.0
 20
4.156249999999998
 30
0.0
  0
SPLINE
  5
143
330
23
100
AcDbEntity
  8
0
  6
Continuous
 62
     7
370
    25
100
AcDbSpline
210
0.0
220
0.0
230
1.0
 70
     8
 71
     3
 72
    18
 73
    14
 74
     0
 42
0.000000001
 43
0.00000001
 40
0.0
 40
0.0
 40
0.0
 40
0.0
 40
0.1250000000000002
 40
0.1250000000000002
 40
0.2500000000000005
 40
0.2500000000000005
 40
0.3750000000000008
 40
0.3750000000000008
 40
0.500000000000001
 40
0.500000000000001
 40
0.7500000000000004
 40
0.7500000000000004
 40
1.0
 40
1.0
 40
1.0
 40
1.0
 10
-6.249494051247658
 20
12.16666666666667
 30
0.0
 10
-6.086782735546786
 20
12.16666666666667
 30
0.0
 10
-5.91966907887603
 20
12.17746701485146
 30
0.0
 10
-5.579099283014229
 20
12.22351317019785
 30
0.0
 10
-5.405240322257816
 20
12.25928307040805
 30
0.0
 10
-5.072655609851912
 20
12.35110202820447
 30
0.0
 10
-4.908588174777264
 20
12.40858745855493
 30
0.0
 10
-4.604878122919398
 20
12.53556893227218
 30
0.0
 10
-4.464246240938951
 20
12.60492116673483
 30
0.0
 10
-4.069632074189182
 20
12.82432790548473
 30
0.0
 10
-3.857674336850182
 20
12.9762140091678
 30
0.0
 10
-3.496724137659678
 20
13.26848908645947
 30
0.0
 10
-3.351741592086024
 20
13.40619845311157
 30
0.0
 10
-3.227597149796781
 20
13.53350168779611
 30
0.0
  0
SPLINE
  5
144
330
23
100
AcDbEntity
  8
0
  6
Continuous
 62
     7
370
    25
100
AcDbSpline
210
0.0
220
0.0
230
1.0
 70
     8
 71
     3
 72
    12
 73
     8
 74
     0
 42
0.000000001
 43
0.00000001
 40
0.0
 40
0.0
 40
0.0
 40
0.0
 40
0.5
 40
0.5
 40
0.75
 40
0.75
 40
1.0
 40
1.0
 40
1.0
 40
1.0
 10
-2.171572875253821
 20
14.5
 30
0.0
 10
-2.212079460127567
 20
14.5
 30
0.0
 10
-2.315148692137139
 20
14.42323399043999
 30
0.0
 10
-2.577459966808082
 20
14.1824342709703
 30
0.0
 10
-2.683580526375122
 20
14.08045495517056
 30
0.0
 10
-2.929649049747525
 20
13.83696851821844
 30
0.0
 10
-3.069828929571868
 20
13.69528424039932
 30
0.0
 10
-3.227597149796785
 20
13.53350168779611
 30
0.0
  0
SPLINE
  5
147
330
23
100
AcDbEntity
  8
0
  6
Continuous
 62
     7
370
    25
100
AcDbSpline
210
0.0
220
0.0
230
1.0
 70
     8
 71
     3
 72
    18
 73
    14
 74
     0
 42
0.000000001
 43
0.00000001
 40
0.0
 40
0.0
 40
0.0
 40
0.0
 40
0.2499999999999994
 40
0.2499999999999994
 40
0.4999999999999989
 40
0.4999999999999989
 40
0.6249999999999991
 40
0.6249999999999991
 40
0.7499999999999994
 40
0.7499999999999994
 40
0.8749999999999997
 40
0.8749999999999997
 40
1.0
 40
1.0
 40
1.0
 40
1.0
 10
-4.414213562373106
 20
13.08578643762691
 30
0.0
 10
-4.456674959013966
 20
13.04332504098604
 30
0.0
 10
-4.506500250498918
 20
12.99694753207333
 30
0.0
 10
-4.633327685525825
 20
12.89426194148211
 30
0.0
 10
-4.709592563307726
 20
12.83778615223222
 30
0.0
 10
-4.866584613248915
 20
12.74542159024692
 30
0.0
 10
-4.927238084942217
 20
12.71277827132053
 30
0.0
 10
-5.071742828585601
 20
12.64696679229141
 30
0.0
 10
-5.158453937711561
 20
12.61285436090245
 30
0.0
 10
-5.351803800992074
 20
12.55500309980611
 30
0.0
 10
-5.459587285854948
 20
12.53179298176234
 30
0.0
 10
-5.65657599978103
 20
12.50491882765599
 30
0.0
 10
-5.747020694553569
 20
12.5
 30
0.0
 10
-5.828427124746201
 20
12.5
 30
0.0
  0
SPLINE
  5
14A
330
23
100
AcDbEntity
  8
0
  6
Continuous
 62
     7
370
    25
100
AcDbSpline
210
0.0
220
0.0
230
1.0
 70
    24
 71
     3
 72
    12
 73
     8
 74
     0
 42
0.000000001
 43
0.00000001
 40
0.0
 40
0.0
 40
0.0
 40
0.0
 40
0.2499999999999994
 40
0.2499999999999994
 40
0.4999999999999989
 40
0.4999999999999989
 40
1.0
 40
1.0
 40
1.0
 40
1.0
 10
-4.414213562373106
 20
13.08578643762691
 30
0.0
 10
-4.27493323290121
 20
13.2250667670988
 30
0.0
 10
-4.153032376889645
 20
13.34696762311037
 30
0.0
 10
-3.943714244386231
 20
13.55628575561378
 30
0.0
 10
-3.856135137672207
 20
13.64386486232781
 30
0.0
 10
-3.650270788960682
 20
13.84972921103933
 30
0.0
 10
-3.585786437626914
 20
13.91421356237309
 30
0.0
 10
-3.585786437626914
 20
13.9142135623731
 30
0.0
  0
LINE
  5
150
330
23
100
AcDbEntity
  8
0
  6
Continuous
 62
     7
370
    25
100
AcDbLine
 10
-40.0
 20
2.5
 30
0.0
 11
-40.0
 21
0.5
 31
0.0
  0
LINE
  5
151
330
23
100
AcDbEntity
  8
0
  6
Continuous
 62
     7
370
    25
100
AcDbLine
 10
-16.5
 20
0.0
 30
0.0
 11
-16.5
 21
-8.0
 31
0.0
  0
LINE
  5
152
330
23
100
AcDbEntity
  8
0
  6
Continuous
 62
     7
370
    25
100
AcDbLine
 10
-10.5
 20
-8.0
 30
0.0
 11
-10.5
 21
0.0
 31
0.0
  0
LINE
  5
153
330
23
100
AcDbEntity
  8
0
  6
Continuous
 62
     7
370
    25
100
AcDbLine
 10
-0.5702775291
 20
0.5
 30
0.0
 11
-0.5702775291
 21
2.0
 31
0.0
  0
LINE
  5
154
330
23
100
AcDbEntity
  8
0
  6
Continuous
 62
     7
370
    25
100
AcDbLine
 10
0.0
 20
2.0
 30
0.0
 11
-0.5702775291
 21
2.0
 31
0.0
  0
LINE
  5
155
330
23
100
AcDbEntity
  8
0
  6
Continuous
 62
     7
370
    25
100
AcDbLine
 10
0.0
 20
0.0
 30
0.0
 11
-39.5
 21
0.0
 31
0.0
  0
LINE
  5
156
330
23
100
AcDbEntity
  8
0
  6
Continuous
 62
     7
370
    25
100
AcDbLine
 10
0.0
 20
2.0
 30
0.0
 11
0.0
 21
0.0
 31
0.0
  0
LINE
  5
157
330
23
100
AcDbEntity
  8
0
  6
Continuous
 62
     7
370
    25
100
AcDbLine
 10
-39.5
 20
3.0
 30
0.0
 11
-1.0
 21
3.0
 31
0.0
  0
LINE
  5
158
330
23
100
AcDbEntity
  8
0
  6
Continuous
 62
     7
370
    25
100
AcDbLine
 10
-10.5
 20
-8.0
 30
0.0
 11
-16.5
 21
-8.0
 31
0.0
  0
LINE
  5
159
330
23
100
AcDbEntity
  8
0
  6
Continuous
 62
     7
370
    25
100
AcDbLine
 10
-2.1715728753
 20
14.5
 30
0.0
 11
-1.0
 21
14.5
 31
0.0
  0
LINE
  5
15A
330
23
100
AcDbEntity
  8
0
  6
Continuous
 62
     7
370
    25
100
AcDbLine
 10
-24.8582722668
 20
12.5
 30
0.0
 11
-5.8284271247
 21
12.5
 31
0.0
  0
LINE
  5
15B
330
23
100
AcDbEntity
  8
0
  6
Continuous
 62
     8
370
    25
100
AcDbLine
 10
-1.0757867915
 20
2.5
 30
0.0
 11
-40.0
 21
2.5
 31
0.0
  0
LINE
  5
15C
330
23
100
AcDbEntity
  8
0
  6
Continuous
 62
     8
370
    25
100
AcDbLine
 10
-40.0
 20
0.5
 30
0.0
 11
-0.5702775291
 21
0.5
 31
0.0
  0
LINE
  5
15D
330
23
100
AcDbEntity
  8
0
  6
Continuous
 62
     8
370
    25
100
AcDbLine
 10
-31.6599061522
 20
4.4375
 30
0.0
 11
-1.1804476654
 21
4.4375
 31
0.0
  0
LINE
  5
15E
330
23
100
AcDbEntity
  8
0
  6
Continuous
 62
     8
370
    25
100
AcDbLine
 10
-6.2494940512
 20
12.1666666667
 30
0.0
 11
-25.9638138635
 21
12.1666666667
 31
0.0
  0
ARC
  5
15F
330
23
100
AcDbEntity
  8
0
  6
Continuous
 62
     7
370
    25
100
AcDbCircle
 10
-39.5
 20
0.5
 30
0.0
 40
0.5
100
AcDbArc
 50
180.0
 51
270.0
  0
ARC
  5
160
330
23
100
AcDbEntity
  8
0
  6
Continuous
 62
     7
370
    25
100
AcDbCircle
 10
-39.5
 20
2.5
 30
0.0
 40
0.5000000000000004
100
AcDbArc
 50
90.0
 51
180.0
  0
ARC
  5
161
330
23
100
AcDbEntity
  8
0
  6
Continuous
 62
     7
370
    25
100
AcDbCircle
 10
-33.5791752188
 20
5.0
 30
0.0
 40
2.00000000000001
100
AcDbArc
 50
270.0
 51
343.6651772193
  0
ARC
  5
162
330
23
100
AcDbEntity
  8
0
  6
Continuous
 62
     7
370
    25
100
AcDbCircle
 10
-18.225022686
 20
0.5
 30
0.0
 40
13.99999999999996
100
AcDbArc
 50
123.5573097619
 51
163.6651772193
  0
ARC
  5
163
330
23
100
AcDbEntity
  8
0
  6
Continuous
 62
     7
370
    25
100
AcDbCircle
 10
-24.8582722668
 20
10.5
 30
0.0
 40
1.999999999999991
100
AcDbArc
 50
90.0
 51
123.5573097619
  0
ARC
  5
164
330
23
100
AcDbEntity
  8
0
  6
Continuous
 62
     7
370
    25
100
AcDbCircle
 10
-0.1942647351
 20
2.6221281811
 30
0.0
 40
0.8899418118870409
100
AcDbArc
 50
154.8744730623
 51
187.8876851251
  0
ARC
  5
165
330
23
100
AcDbEntity
  8
0
  6
Continuous
 62
     7
370
    25
100
AcDbCircle
 10
-0.861559311
 20
3.1580400422
 30
0.0
 40
1.318600609037397
100
AcDbArc
 50
49.2023818173
 51
103.9950738136
  0
ARC
  5
166
330
23
100
AcDbEntity
  8
0
  6
Continuous
 62
     7
370
    25
100
AcDbCircle
 10
-1.0
 20
13.5
 30
0.0
 40
1.0
100
AcDbArc
 50
0.0
 51
90.0
  0
ARC
  5
167
330
23
100
AcDbEntity
  8
0
  6
Continuous
 62
     7
370
    25
100
AcDbCircle
 10
-5.7441635047
 20
11.9609454279
 30
0.0
 40
0.5456007600678512
100
AcDbArc
 50
98.8844299446
 51
157.8486475478
  0
ARC
  5
168
330
23
100
AcDbEntity
  8
0
  6
Continuous
 62
     7
370
    25
100
AcDbCircle
 10
-3.3064302987
 20
11.9460886628
 30
0.0
 40
1.589369301721483
100
AcDbArc
 50
87.1569472266
 51
134.186447463
  0
ARC
  5
169
330
23
100
AcDbEntity
  8
0
  6
Continuous
 62
     7
370
    25
100
AcDbCircle
 10
-2.1715728753
 20
12.5
 30
0.0
 40
1.999999999999974
100
AcDbArc
 50
90.0
 51
135.0
  0
VIEWPORT
  5
376
330
23
100
AcDbEntity
  8
0
100
AcDbViewport
 10
0.0
 20
0.0
 30
0.0
 40
205.6
 41
156.0
 68
     1
 69
     1
 12
0.0
 22
-20.0
 13
0.0
 23
0.0
 14
10.0
 24
10.0
 15
10.0
 25
10.0
 16
0.0
 26
0.0
 36
1.0
 17
0.0
 27
0.0
 37
0.0
 42
50.0
 43
0.0
 44
0.0
 45
70.3156390604
 50
0.0
 51
0.0
 72
   100
 90
   557152
  1

281
     0
 71
     1
 74
     0
110
0.0
120
0.0
130
0.0
111
1.0
121
0.0
131
0.0
112
0.0
122
1.0
132
0.0
 79
     0
146
0.0
  0
ENDBLK
  5
25
330
23
100
AcDbEntity
  8
0
100
AcDbBlockEnd
  0
BLOCK
  5
16C
330
16A
100
AcDbEntity
  8
0
100
AcDbBlockBegin
  2
*Paper_Space1
 70
     0
 10
0.0
 20
0.0
 30
0.0
  3
*Paper_Space1
  1

  0
SPLINE
  5
170
330
16A
100
AcDbEntity
  8
0
  6
Continuous
 62
     7
370
    25
100
AcDbSpline
210
0.0
220
0.0
230
1.0
 70
     8
 71
     3
 72
    17
 73
    13
 74
     0
 42
0.000000001
 43
0.00000001
 40
0.0
 40
0.0
 40
0.0
 40
0.0
 40
0.0251885780786237
 40
0.1484855629462772
 40
0.2521874222772044
 40
0.3454309231478082
 40
0.4333527874388776
 40
0.5223726098228482
 40
0.6339386304150787
 40
0.7898612999444162
 40
0.9297518333139552
 40
1.0
 40
1.0
 40
1.0
 40
1.0
 10
-44.86353565692051
 20
2.995248441310329
 30
0.0
 10
-44.87508403042758
 20
2.996471693420419
 30
0.0
 10
-44.94316118571435
 20
3.003682710954831
 30
0.0
 10
-45.05792956360396
 20
2.963755853954503
 30
0.0
 10
-45.18328095406155
 20
2.888322052951442
 30
0.0
 10
-45.27172889786539
 20
2.793628134453765
 30
0.0
 10
-45.33108869989547
 20
2.692908140480454
 30
0.0
 10
-45.3696564323454
 20
2.58866288255491
 30
0.0
 10
-45.39783416477463
 20
2.464768496905684
 30
0.0
 10
-45.41670929868103
 20
2.307498847237913
 30
0.0
 10
-45.42700516549143
 20
2.143795620139428
 30
0.0
 10
-45.42646323419786
 20
2.045578289899669
 30
0.0
 10
-45.42628206966305
 20
2.012744797619019
 30
0.0
  0
SPLINE
  5
171
330
16A
100
AcDbEntity
  8
0
  6
Continuous
 62
     7
370
    25
100
AcDbSpline
210
0.0
220
0.0
230
1.0
 70
     8
 71
     3
 72
    15
 73
    11
 74
     0
 42
0.000000001
 43
0.00000001
 40
0.0
 40
0.0
 40
0.0
 40
0.0
 40
0.066279594898292
 40
0.2018808094741935
 40
0.3367495275738073
 40
0.4736102095254559
 40
0.6103482794207737
 40
0.7484455283073826
 40
0.8868508836131549
 40
1.0
 40
1.0
 40
1.0
 40
1.0
 10
-36.89174099933542
 20
4.444445196715164
 30
0.0
 10
-36.90683322043138
 20
4.388655436672843
 30
0.0
 10
-36.95280256916217
 20
4.218725582167878
 30
0.0
 10
-37.09356464384905
 20
3.957983938616322
 30
0.0
 10
-37.30574029949531
 20
3.672703770864358
 30
0.0
 10
-37.56795463459771
 20
3.429320063039434
 30
0.0
 10
-37.87041341326063
 20
3.233558120249773
 30
0.0
 10
-38.20320340923953
 20
3.093473665731683
 30
0.0
 10
-38.53532803413326
 20
3.011832611987076
 30
0.0
 10
-38.75473925711968
 20
3.006854290370953
 30
0.0
 10
-38.85343035109717
 20
3.004615042989805
 30
0.0
  0
SPLINE
  5
172
330
16A
100
AcDbEntity
  8
0
  6
Continuous
 62
     7
370
    25
100
AcDbSpline
210
0.0
220
0.0
230
1.0
 70
     8
 71
     3
 72
    24
 73
    20
 74
     0
 42
0.000000001
 43
0.00000001
 40
0.0
 40
0.0
 40
0.0
 40
0.0
 40
0.0005656524728265
 40
0.0687504556684131
 40
0.1364839777200552
 40
0.2037583867259638
 40
0.2705962692762398
 40
0.3370565372169896
 40
0.4027441255594904
 40
0.4675832157029018
 40
0.5328524571652721
 40
0.5985280238495889
 40
0.6645670363086704
 40
0.7309033153059856
 40
0.7974519063354041
 40
0.8641149304376047
 40
0.9307574503562583
 40
0.997274281383248
 40
1.0
 40
1.0
 40
1.0
 40
1.0
 10
-27.12855128575107
 20
13.93364340931883
 30
0.0
 10
-27.13115247755125
 20
13.93301129032041
 30
0.0
 10
-27.44730617639478
 20
13.8561823692682
 30
0.0
 10
-28.06024675460966
 20
13.64785654412359
 30
0.0
 10
-28.95882437135127
 20
13.30551815822772
 30
0.0
 10
-29.82450762282437
 20
12.89935089157206
 30
0.0
 10
-30.65619866142359
 20
12.44065238887464
 30
0.0
 10
-31.44851496320004
 20
11.93031662045092
 30
0.0
 10
-32.19632080922629
 20
11.37249853652703
 30
0.0
 10
-32.90031338756855
 20
10.76898321731332
 30
0.0
 10
-33.56250758902087
 20
10.11997630054923
 30
0.0
 10
-34.18395165761205
 20
9.424209448682744
 30
0.0
 10
-34.76105490121049
 20
8.684847475431138
 30
0.0
 10
-35.29048094359784
 20
7.905570978703091
 30
0.0
 10
-35.76820591652785
 20
7.090306305842494
 30
0.0
 10
-36.19342023181805
 20
6.244386096460785
 30
0.0
 10
-36.55427138615539
 20
5.370304778485046
 30
0.0
 10
-36.77744970399618
 20
4.765630538597328
 30
0.0
 10
-36.86237965388653
 20
4.449137670049336
 30
0.0
 10
-36.86572290376292
 20
4.436678993869603
 30
0.0
  0
SPLINE
  5
173
330
16A
100
AcDbEntity
  8
0
  6
Continuous
 62
     7
370
    25
100
AcDbSpline
210
0.0
220
0.0
230
1.0
 70
     8
 71
     3
 72
    23
 73
    19
 74
     0
 42
0.000000001
 43
0.00000001
 40
0.0
 40
0.0
 40
0.0
 40
0.0
 40
0.0351626703310635
 40
0.1007431761958049
 40
0.1663966562838589
 40
0.2320359189130936
 40
0.2970923220957181
 40
0.3625806633081289
 40
0.4284833818526644
 40
0.4946716268688524
 40
0.5609986809070909
 40
0.6272635249511835
 40
0.6933201606086878
 40
0.7585357366858076
 40
0.8237222973571876
 40
0.8895500792958487
 40
0.9560433694121596
 40
1.0
 40
1.0
 40
1.0
 40
1.0
 10
36.87635318709737
 20
4.439896486246321
 30
0.0
 10
36.82990487995987
 20
4.600098400970288
 30
0.0
 10
36.69682767206035
 20
5.059086571379066
 30
0.0
 10
36.41137007745919
 20
5.79602664940919
 30
0.0
 10
36.02657894469064
 20
6.647134381910662
 30
0.0
 10
35.58304588978438
 20
7.466872850887851
 30
0.0
 10
35.08633072805122
 20
8.254343515212737
 30
0.0
 10
34.53750173737088
 20
9.008035857795955
 30
0.0
 10
33.9365687178193
 20
9.72786366024744
 30
0.0
 10
33.28652702684501
 20
10.40919414862895
 30
0.0
 10
32.59142646164607
 20
11.04704523924984
 30
0.0
 10
31.85580199964296
 20
11.63669868186079
 30
0.0
 10
31.08660635156938
 20
12.17273878745337
 30
0.0
 10
30.2869687189358
 20
12.65221491462659
 30
0.0
 10
29.45838136987679
 20
13.07756445085892
 30
0.0
 10
28.59749245198512
 20
13.447711757868
 30
0.0
 10
27.81132543744667
 20
13.73508311215229
 30
0.0
 10
27.30601904621861
 20
13.87358367696061
 30
0.0
 10
27.10491825564058
 20
13.92870384476765
 30
0.0
  0
SPLINE
  5
174
330
16A
100
AcDbEntity
  8
0
  6
Continuous
 62
     7
370
    25
100
AcDbSpline
210
0.0
220
0.0
230
1.0
 70
     8
 71
     3
 72
    15
 73
    11
 74
     0
 42
0.000000001
 43
0.00000001
 40
0.0
 40
0.0
 40
0.0
 40
0.0
 40
0.0383722811692315
 40
0.1829133077978167
 40
0.3256052861886028
 40
0.4693301958742971
 40
0.6105721636474519
 40
0.7525017984234809
 40
0.8925311821558468
 40
1.0
 40
1.0
 40
1.0
 40
1.0
 10
38.76239135958485
 20
3.008240168538715
 30
0.0
 10
38.73010750195473
 20
3.007845210592324
 30
0.0
 10
38.57621654192668
 20
3.00596252178118
 30
0.0
 10
38.30558211658253
 20
3.065069846150108
 30
0.0
 10
37.96359687251409
 20
3.186385189004346
 30
0.0
 10
37.65076734663472
 20
3.368124972754186
 30
0.0
 10
37.3746138859648
 20
3.600233109403106
 30
0.0
 10
37.14685857188184
 20
3.87524116374883
 30
0.0
 10
36.97908141850878
 20
4.159749643233985
 30
0.0
 10
36.91634286318325
 20
4.358607712785826
 30
0.0
 10
36.88910048998159
 20
4.4449559832677
 30
0.0
  0
SPLINE
  5
176
330
16A
100
AcDbEntity
  8
0
  6
Continuous
 62
     7
370
    25
100
AcDbSpline
210
0.0
220
0.0
230
1.0
 70
     8
 71
     3
 72
    16
 73
    12
 74
     0
 42
0.000000001
 43
0.00000001
 40
0.0
 40
0.0
 40
0.0
 40
0.0
 40
0.0964711162866239
 40
0.2412124066215902
 40
0.3970140409034673
 40
0.5085689808015046
 40
0.6324277962805822
 40
0.7389072542987543
 40
0.8489550225097259
 40
0.9684329520533618
 40
1.0
 40
1.0
 40
1.0
 40
1.0
 10
45.42656068563817
 20
2.000095984959402
 30
0.0
 10
45.42653442749863
 20
2.045937116632676
 30
0.0
 10
45.42646877272785
 20
2.160556394596818
 30
0.0
 10
45.41420171239962
 20
2.337934539617422
 30
0.0
 10
45.39262025931497
 20
2.494649803999978
 30
0.0
 10
45.35767492798123
 20
2.631372250886894
 30
0.0
 10
45.2964823726612
 20
2.762873797320957
 30
0.0
 10
45.19347732957542
 20
2.881785585326536
 30
0.0
 10
45.06028533324698
 20
2.963014609053429
 30
0.0
 10
44.93951897504627
 20
3.004778264899456
 30
0.0
 10
44.86931981719279
 20
2.995683209348573
 30
0.0
 10
44.85464882171452
 20
2.993782424169067
 30
0.0
  0
SPLINE
  5
17C
330
16A
100
AcDbEntity
  8
0
  6
Continuous
 62
     7
370
    25
100
AcDbSpline
210
0.0
220
0.0
230
1.0
 70
     8
 71
     3
 72
    12
 73
     8
 74
     0
 42
0.000000001
 43
0.00000001
 40
0.0
 40
0.0
 40
0.0
 40
0.0
 40
0.1558721141755486
 40
0.3110068171765724
 40
0.529780295062786
 40
0.8324300345779206
 40
1.0
 40
1.0
 40
1.0
 40
1.0
 10
-44.99519934918165
 20
0.0
 30
0.0
 10
-45.03894512733276
 20
0.0035733584750541
 30
0.0
 10
-45.12622972791478
 20
0.010703170320077
 30
0.0
 10
-45.24915744919413
 20
0.0684225256156897
 30
0.0
 10
-45.36009384925344
 20
0.1728080759347667
 30
0.0
 10
-45.42342617529023
 20
0.3031910478633656
 30
0.0
 10
-45.42145411886077
 20
0.397634148879486
 30
0.0
 10
-45.42075134646688
 20
0.4312903887296183
 30
0.0
  0
SPLINE
  5
17E
330
16A
100
AcDbEntity
  8
0
  6
Continuous
 62
     7
370
    25
100
AcDbSpline
210
0.0
220
0.0
230
1.0
 70
     8
 71
     3
 72
    12
 73
     8
 74
     0
 42
0.000000001
 43
0.00000001
 40
0.0
 40
0.0
 40
0.0
 40
0.0
 40
0.1558721141755506
 40
0.3110068171765763
 40
0.5297802950627927
 40
0.832430034577931
 40
1.0
 40
1.0
 40
1.0
 40
1.0
 10
44.99519934918166
 20
0.0
 30
0.0
 10
45.03894512733277
 20
0.0035733584750541
 30
0.0
 10
45.12622972791479
 20
0.010703170320077
 30
0.0
 10
45.24915744919412
 20
0.0684225256156897
 30
0.0
 10
45.36009384925342
 20
0.1728080759347667
 30
0.0
 10
45.42342617529023
 20
0.303191047863363
 30
0.0
 10
45.42145411886077
 20
0.3976341488794812
 30
0.0
 10
45.42075134646688
 20
0.431290388729611
 30
0.0
  0
SPLINE
  5
180
330
16A
100
AcDbEntity
  8
0
  6
Continuous
 62
     7
370
    25
100
AcDbSpline
210
0.0
220
0.0
230
1.0
 70
     8
 71
     3
 72
    20
 73
    16
 74
     0
 42
0.000000001
 43
0.00000001
 40
0.0
 40
0.0
 40
0.0
 40
0.0
 40
0.2500000000000023
 40
0.2500000000000023
 40
0.375000000000002
 40
0.375000000000002
 40
0.5000000000000017
 40
0.5000000000000017
 40
0.6250000000000012
 40
0.6250000000000012
 40
0.7500000000000009
 40
0.7500000000000009
 40
0.8750000000000004
 40
0.8750000000000004
 40
1.0
 40
1.0
 40
1.0
 40
1.0
 10
39.01699869342993
 20
0.0
 30
0.0
 10
38.47242688496614
 20
0.0
 30
0.0
 10
37.94227740145069
 20
0.0847852751860111
 30
0.0
 10
37.16848795358791
 20
0.3379729338140783
 30
0.0
 10
36.91797796741321
 20
0.4428163031007042
 30
0.0
 10
36.44039395422497
 20
0.6884808993291662
 30
0.0
 10
36.21183552256814
 20
0.829772682676149
 30
0.0
 10
35.77576464507982
 20
1.150319333329627
 30
0.0
 10
35.56947680367148
 20
1.329240706283774
 30
0.0
 10
35.19289156412328
 20
1.712706899733016
 30
0.0
 10
35.02061532231619
 20
1.918615861928937
 30
0.0
 10
34.7087563466529
 20
2.359370339357351
 30
0.0
 10
34.56921410132654
 20
2.595044440003947
 30
0.0
 10
34.33287722142116
 20
3.080840016892687
 30
0.0
 10
34.23466884730741
 20
3.332684724208973
 30
0.0
 10
34.1570310356927
 20
3.593750000000002
 30
0.0
  0
SPLINE
  5
181
330
16A
100
AcDbEntity
  8
0
  6
Continuous
 62
     7
370
    25
100
AcDbSpline
210
0.0
220
0.0
230
1.0
 70
     8
 71
     3
 72
    24
 73
    20
 74
     0
 42
0.000000001
 43
0.00000001
 40
0.0
 40
0.0
 40
0.0
 40
0.0
 40
0.2500000000000011
 40
0.2500000000000011
 40
0.3750000000000014
 40
0.3750000000000014
 40
0.5000000000000013
 40
0.5000000000000013
 40
0.5625000000000013
 40
0.5625000000000013
 40
0.6250000000000013
 40
0.6250000000000013
 40
0.750000000000001
 40
0.750000000000001
 40
0.8125000000000006
 40
0.8125000000000006
 40
0.8750000000000001
 40
0.8750000000000001
 40
1.0
 40
1.0
 40
1.0
 40
1.0
 10
34.1570310356927
 20
3.59375
 30
0.0
 10
33.8134576472581
 20
4.749051515339903
 30
0.0
 10
33.29230025371841
 20
5.81669040839726
 30
0.0
 10
32.24793026682337
 20
7.288502071407088
 30
0.0
 10
31.86225556179915
 20
7.746521665341887
 30
0.0
 10
31.02639474061096
 20
8.59139024284454
 30
0.0
 10
30.57508718105047
 20
8.979801461936619
 30
0.0
 10
29.84687828138967
 20
9.510178978092059
 30
0.0
 10
29.59610960308472
 20
9.677671165917173
 30
0.0
 10
29.08631762759002
 20
9.989419972683613
 30
0.0
 10
28.82626947160844
 20
10.13444571473763
 30
0.0
 10
28.03099025332625
 20
10.53765445888416
 30
0.0
 10
27.48071574078303
 20
10.76416122497557
 30
0.0
 10
26.6247629385724
 20
11.03961265729822
 30
0.0
 10
26.33380922638673
 20
11.1206851286846
 30
0.0
 10
25.75081244932202
 20
11.25870211746913
 30
0.0
 10
25.45768407577216
 20
11.31604546541071
 30
0.0
 10
24.57350317375176
 20
11.45375403300445
 30
0.0
 10
23.97768312085501
 20
11.5
 30
0.0
 10
23.37540106307542
 20
11.5
 30
0.0
  0
SPLINE
  5
183
330
16A
100
AcDbEntity
  8
0
  6
Continuous
 62
     7
370
    25
100
AcDbSpline
210
0.0
220
0.0
230
1.0
 70
     8
 71
     3
 72
    24
 73
    20
 74
     0
 42
0.000000001
 43
0.00000001
 40
0.0
 40
0.0
 40
0.0
 40
0.0
 40
0.2499999999999998
 40
0.2499999999999998
 40
0.3124999999999997
 40
0.3124999999999997
 40
0.3749999999999997
 40
0.3749999999999997
 40
0.4999999999999994
 40
0.4999999999999994
 40
0.5624999999999994
 40
0.5624999999999994
 40
0.6249999999999993
 40
0.6249999999999993
 40
0.7499999999999996
 40
0.7499999999999996
 40
0.8749999999999998
 40
0.8749999999999998
 40
1.0
 40
1.0
 40
1.0
 40
1.0
 10
-23.37540106307542
 20
11.5
 30
0.0
 10
-24.58013533156353
 20
11.5
 30
0.0
 10
-25.75427484151853
 20
11.31825125887707
 30
0.0
 10
-27.18310279577356
 20
10.86029736215155
 30
0.0
 10
-27.46669703448127
 20
10.75681995100196
 30
0.0
 10
-28.01971093903967
 20
10.52982538418173
 30
0.0
 10
-28.29044140396913
 20
10.4059206080101
 30
0.0
 10
-29.08552325581707
 20
10.00338002929771
 30
0.0
 10
-29.59287389072268
 20
9.694113985089027
 30
0.0
 10
-30.31879972775377
 20
9.166975068313247
 30
0.0
 10
-30.55594285327783
 20
8.979718249765279
 30
0.0
 10
-31.01119248666479
 20
8.589105520533098
 30
0.0
 10
-31.22958764145415
 20
8.38571080160868
 30
0.0
 10
-31.85765089061103
 20
7.751758267560782
 30
0.0
 10
-32.24037005718598
 20
7.297583934467307
 30
0.0
 10
-32.93262608032578
 20
6.325102425862923
 30
0.0
 10
-33.24272551975258
 20
5.803957271663144
 30
0.0
 10
-33.76749732214799
 20
4.72890537087472
 30
0.0
 10
-33.98520758462364
 20
4.171524356435042
 30
0.0
 10
-34.15703103569269
 20
3.593749999999998
 30
0.0
  0
SPLINE
  5
184
330
16A
100
AcDbEntity
  8
0
  6
Continuous
 62
     7
370
    25
100
AcDbSpline
210
0.0
220
0.0
230
1.0
 70
     8
 71
     3
 72
    18
 73
    14
 74
     0
 42
0.000000001
 43
0.00000001
 40
0.0
 40
0.0
 40
0.0
 40
0.0
 40
0.2500000000000013
 40
0.2500000000000013
 40
0.5000000000000027
 40
0.5000000000000027
 40
0.625000000000002
 40
0.625000000000002
 40
0.7500000000000013
 40
0.7500000000000013
 40
0.8750000000000007
 40
0.8750000000000007
 40
1.0
 40
1.0
 40
1.0
 40
1.0
 10
-34.1570310356927
 20
3.59375
 30
0.0
 10
-34.31229327482668
 20
3.071664453841101
 30
0.0
 10
-34.54728076632831
 20
2.588950767506693
 30
0.0
 10
-35.17376811676326
 20
1.700816132186636
 30
0.0
 10
-35.55168068488484
 20
1.315961595340207
 30
0.0
 10
-36.20651809223681
 20
0.8332287743593172
 30
0.0
 10
-36.43773868089124
 20
0.6900233481902606
 30
0.0
 10
-36.91536714058508
 20
0.4439846213779666
 30
0.0
 10
-37.16322161175378
 20
0.3400599597828948
 30
0.0
 10
-37.6773498083249
 20
0.1711155899736293
 30
0.0
 10
-37.94278702805087
 20
0.1067947428909284
 30
0.0
 10
-38.47548374878136
 20
0.0216014378157763
 30
0.0
 10
-38.74474349565881
 20
0.0
 30
0.0
 10
-39.01699869342993
 20
0.0
 30
0.0
  0
SPLINE
  5
187
330
16A
100
AcDbEntity
  8
0
  6
Continuous
 62
     7
370
    25
100
AcDbSpline
210
0.0
220
0.0
230
1.0
 70
     8
 71
     3
 72
    16
 73
    12
 74
     0
 42
0.000000001
 43
0.00000001
 40
0.0
 40
0.0
 40
0.0
 40
0.0
 40
0.25
 40
0.25
 40
0.5
 40
0.5
 40
0.75
 40
0.75
 40
0.875
 40
0.875
 40
1.0
 40
1.0
 40
1.0
 40
1.0
 10
-35.92590285151105
 20
4.156249999999998
 30
0.0
 10
-36.01957898302332
 20
3.842325427806981
 30
0.0
 10
-36.16142113697013
 20
3.55225587390329
 30
0.0
 10
-36.53947595647299
 20
3.018855320924058
 30
0.0
 10
-36.76732066697817
 20
2.788062623114157
 30
0.0
 10
-37.29359254090064
 20
2.402185663307607
 30
0.0
 10
-37.58328827376091
 20
2.253944918504864
 30
0.0
 10
-38.04751581744207
 20
2.102285665705705
 30
0.0
 10
-38.20713175802939
 20
2.063845306167559
 30
0.0
 10
-38.52751383266626
 20
2.012912437206408
 30
0.0
 10
-38.68945107753547
 20
2.0
 30
0.0
 10
-38.8531843874233
 20
2.0
 30
0.0
  0
SPLINE
  5
188
330
16A
100
AcDbEntity
  8
0
  6
Continuous
 62
     7
370
    25
100
AcDbSpline
210
0.0
220
0.0
230
1.0
 70
     8
 71
     3
 72
    26
 73
    22
 74
     0
 42
0.000000001
 43
0.00000001
 40
0.0
 40
0.0
 40
0.0
 40
0.0
 40
0.1250000000000008
 40
0.1250000000000008
 40
0.187500000000001
 40
0.187500000000001
 40
0.2500000000000011
 40
0.2500000000000011
 40
0.3750000000000013
 40
0.3750000000000013
 40
0.4375000000000011
 40
0.4375000000000011
 40
0.500000000000001
 40
0.500000000000001
 40
0.6250000000000007
 40
0.6250000000000007
 40
0.7500000000000004
 40
0.7500000000000004
 40
0.8750000000000002
 40
0.8750000000000002
 40
1.0
 40
1.0
 40
1.0
 40
1.0
 10
-23.10093341966137
 20
13.5
 30
0.0
 10
-23.81564772487564
 20
13.5
 30
0.0
 10
-24.52281535095925
 20
13.44615984085317
 30
0.0
 10
-25.57233187196486
 20
13.28524649517042
 30
0.0
 10
-25.92029053157356
 20
13.21819496826492
 30
0.0
 10
-26.61236509233316
 20
13.05667658072264
 30
0.0
 10
-26.95784000918241
 20
12.9617375945165
 30
0.0
 10
-27.97564056510077
 20
12.63841086144333
 30
0.0
 10
-28.63008476152397
 20
12.3721750188279
 30
0.0
 10
-29.57601816395054
 20
11.89763871064429
 30
0.0
 10
-29.88534755162519
 20
11.72687425644342
 30
0.0
 10
-30.49178162396068
 20
11.35962438848286
 30
0.0
 10
-30.7899876076716
 20
11.16232784800671
 30
0.0
 10
-31.65746015822643
 20
10.53618545578306
 30
0.0
 10
-32.19513188490891
 20
10.07725185873184
 30
0.0
 10
-33.19101517285824
 20
9.078239180374249
 30
0.0
 10
-33.65034658536679
 20
8.53662530683213
 30
0.0
 10
-34.48053017522139
 20
7.374202072842282
 30
0.0
 10
-34.84232599904629
 20
6.766608842712748
 30
0.0
 10
-35.46273753482428
 20
5.500348019077156
 30
0.0
 10
-35.72136622635564
 20
4.841686850488512
 30
0.0
 10
-35.92590285151105
 20
4.156249999999998
 30
0.0
  0
SPLINE
  5
18A
330
16A
100
AcDbEntity
  8
0
  6
Continuous
 62
     7
370
    25
100
AcDbSpline
210
0.0
220
0.0
230
1.0
 70
     8
 71
     3
 72
    24
 73
    20
 74
     0
 42
0.000000001
 43
0.00000001
 40
0.0
 40
0.0
 40
0.0
 40
0.0
 40
0.1249999999999992
 40
0.1249999999999992
 40
0.2499999999999983
 40
0.2499999999999983
 40
0.3749999999999976
 40
0.3749999999999976
 40
0.4374999999999973
 40
0.4374999999999973
 40
0.4999999999999971
 40
0.4999999999999971
 40
0.6249999999999972
 40
0.6249999999999972
 40
0.6874999999999974
 40
0.6874999999999974
 40
0.7499999999999976
 40
0.7499999999999976
 40
1.0
 40
1.0
 40
1.0
 40
1.0
 10
35.92590285151105
 20
4.156250000000003
 30
0.0
 10
35.72130193637894
 20
4.841902297082067
 30
0.0
 10
35.46180478859057
 20
5.503308355421225
 30
0.0
 10
34.83580097676529
 20
6.778857150862748
 30
0.0
 10
34.4659603956686
 20
7.396476449963487
 30
0.0
 10
33.6414017988623
 20
8.547221760679385
 30
0.0
 10
33.18538878123247
 20
9.08461736864448
 30
0.0
 10
32.43669790932573
 20
9.834552127840878
 30
0.0
 10
32.17630392167969
 20
10.07512561858744
 30
0.0
 10
31.63337650356171
 20
10.53704737331463
 30
0.0
 10
31.35131774545447
 20
10.75778065960188
 30
0.0
 10
30.48787673337285
 20
11.37909690477184
 30
0.0
 10
29.88442656830826
 20
11.74336356707021
 30
0.0
 10
28.93876993722656
 20
12.21709627722448
 30
0.0
 10
28.61677223787743
 20
12.36283865869483
 30
0.0
 10
27.95905381246376
 20
12.62968950391517
 30
0.0
 10
27.62177729980893
 20
12.75123861057357
 30
0.0
 10
25.92478521800837
 20
13.28820290926212
 30
0.0
 10
24.53063561284363
 20
13.50000000000001
 30
0.0
 10
23.10093341966136
 20
13.5
 30
0.0
  0
SPLINE
  5
18B
330
16A
100
AcDbEntity
  8
0
  6
Continuous
 62
     7
370
    25
100
AcDbSpline
210
0.0
220
0.0
230
1.0
 70
     8
 71
     3
 72
    18
 73
    14
 74
     0
 42
0.000000001
 43
0.00000001
 40
0.0
 40
0.0
 40
0.0
 40
0.0
 40
0.2499999999999978
 40
0.2499999999999978
 40
0.4999999999999956
 40
0.4999999999999956
 40
0.6249999999999967
 40
0.6249999999999967
 40
0.7499999999999978
 40
0.7499999999999978
 40
0.8749999999999989
 40
0.8749999999999989
 40
1.0
 40
1.0
 40
1.0
 40
1.0
 10
38.85318438742329
 20
2.0
 30
0.0
 10
38.52566961616174
 20
2.0
 30
0.0
 10
38.20676830854489
 20
2.050687326057508
 30
0.0
 10
37.58605357456951
 20
2.252618391329797
 30
0.0
 10
37.29647857689682
 20
2.400624465994604
 30
0.0
 10
36.90249282801822
 20
2.688678529174843
 30
0.0
 10
36.77805422366676
 20
2.796027403254408
 30
0.0
 10
36.5509479026323
 20
3.026109774818216
 30
0.0
 10
36.44705152215565
 20
3.149677154322196
 30
0.0
 10
36.25896991686483
 20
3.414215347079083
 30
0.0
 10
36.17471740981659
 20
3.555825159873684
 30
0.0
 10
36.0320270579482
 20
3.847853578009041
 30
0.0
 10
35.97274670167727
 20
3.999268329366218
 30
0.0
 10
35.92590285151105
 20
4.156250000000001
 30
0.0
  0
SPLINE
  5
18E
330
16A
100
AcDbEntity
  8
0
  6
Continuous
 62
     7
370
    25
100
AcDbSpline
210
0.0
220
0.0
230
1.0
 70
     8
 71
     3
 72
    14
 73
    10
 74
     0
 42
0.000000001
 43
0.00000001
 40
0.0
 40
0.0
 40
0.0
 40
0.0
 40
0.25
 40
0.25
 40
0.5
 40
0.5
 40
0.75
 40
0.75
 40
1.0
 40
1.0
 40
1.0
 40
1.0
 10
-44.92765017224916
 20
2.0
 30
0.0
 10
-44.92765017224915
 20
2.132227754517074
 30
0.0
 10
-44.9258042109543
 20
2.262045787394996
 30
0.0
 10
-44.91862942525703
 20
2.504247322223715
 30
0.0
 10
-44.91329683580297
 20
2.615218316034781
 30
0.0
 10
-44.89989750419932
 20
2.799523642360057
 30
0.0
 10
-44.89172212890094
 20
2.873933928814747
 30
0.0
 10
-44.87382370776199
 20
2.973559008989208
 30
0.0
 10
-44.86393290731096
 20
3.0
 30
0.0
 10
-44.85382508772246
 20
3.0
 30
0.0
  0
SPLINE
  5
195
330
16A
100
AcDbEntity
  8
0
  6
Continuous
 62
     7
370
    25
100
AcDbSpline
210
0.0
220
0.0
230
1.0
 70
     8
 71
     3
 72
    11
 73
     7
 74
     0
 42
0.000000001
 43
0.00000001
 40
0.0
 40
0.0
 40
0.0
 40
0.0
 40
0.2318865769630252
 40
0.4871120797813084
 40
0.7429249718840347
 40
1.0
 40
1.0
 40
1.0
 40
1.0
 10
-27.12964728083838
 20
13.94224675353929
 30
0.0
 10
-26.82479897354754
 20
14.02345323048961
 30
0.0
 10
-26.18441997909658
 20
14.19403945586344
 30
0.0
 10
-25.18745417601435
 20
14.36439225948081
 30
0.0
 10
-24.148201881614
 20
14.47921383117771
 30
0.0
 10
-23.45059514024642
 20
14.49305991938187
 30
0.0
 10
-23.10093341966137
 20
14.5
 30
0.0
  0
SPLINE
  5
197
330
16A
100
AcDbEntity
  8
0
  6
Continuous
 62
     7
370
    25
100
AcDbSpline
210
0.0
220
0.0
230
1.0
 70
     8
 71
     3
 72
    10
 73
     6
 74
     0
 42
0.000000001
 43
0.00000001
 40
0.0
 40
0.0
 40
0.0
 40
0.0
 40
0.5
 40
0.5
 40
1.0
 40
1.0
 40
1.0
 40
1.0
 10
-26.25129974432169
 20
10.96446609406726
 30
0.0
 10
-25.72148304827216
 20
11.14583079024306
 30
0.0
 10
-25.17244546488791
 20
11.27924716174346
 30
0.0
 10
-24.03852803469185
 20
11.45666798249558
 30
0.0
 10
-23.44992236554869
 20
11.50000000000001
 30
0.0
 10
-22.86178268821145
 20
11.50000000000001
 30
0.0
  0
SPLINE
  5
198
330
16A
100
AcDbEntity
  8
0
  6
Continuous
 62
     7
370
    25
100
AcDbSpline
210
0.0
220
0.0
230
1.0
 70
     8
 71
     3
 72
    20
 73
    16
 74
     0
 42
0.000000001
 43
0.00000001
 40
0.0
 40
0.0
 40
0.0
 40
0.0
 40
0.2500000000000002
 40
0.2500000000000002
 40
0.3750000000000002
 40
0.3750000000000002
 40
0.5000000000000002
 40
0.5000000000000002
 40
0.625
 40
0.625
 40
0.75
 40
0.75
 40
0.875
 40
0.875
 40
1.0
 40
1.0
 40
1.0
 40
1.0
 10
-26.25129974432169
 20
10.96446609406726
 30
0.0
 10
-26.61620266026444
 20
10.83955401225278
 30
0.0
 10
-26.95890968912988
 20
10.6948502806901
 30
0.0
 10
-27.42167815167736
 20
10.45413561033176
 30
0.0
 10
-27.56358290867707
 20
10.37188249496525
 30
0.0
 10
-27.81912111013995
 20
10.20632730253691
 30
0.0
 10
-27.93334409751156
 20
10.12256442392535
 30
0.0
 10
-28.12465410050773
 20
9.959776065294758
 30
0.0
 10
-28.19852628192663
 20
9.88362332984692
 30
0.0
 10
-28.30034424137145
 20
9.746525256269424
 30
0.0
 10
-28.32694499561686
 20
9.68671987678315
 30
0.0
 10
-28.33183433303824
 20
9.592199578476482
 30
0.0
 10
-28.31008206882962
 20
9.556438809965075
 30
0.0
 10
-28.22621503435862
 20
9.510695606764058
 30
0.0
 10
-28.16410267836744
 20
9.499999999999993
 30
0.0
 10
-28.08561460241026
 20
9.499999999999993
 30
0.0
  0
SPLINE
  5
199
330
16A
100
AcDbEntity
  8
0
  6
Continuous
 62
     7
370
    25
100
AcDbSpline
210
0.0
220
0.0
230
1.0
 70
     8
 71
     3
 72
    20
 73
    16
 74
     0
 42
0.000000001
 43
0.00000001
 40
0.0
 40
0.0
 40
0.0
 40
0.0
 40
0.2500000000000002
 40
0.2500000000000002
 40
0.3750000000000002
 40
0.3750000000000002
 40
0.5000000000000002
 40
0.5000000000000002
 40
0.625
 40
0.625
 40
0.75
 40
0.75
 40
0.875
 40
0.875
 40
1.0
 40
1.0
 40
1.0
 40
1.0
 10
26.25129974432169
 20
10.96446609406726
 30
0.0
 10
26.61620266026444
 20
10.83955401225278
 30
0.0
 10
26.95890968912988
 20
10.6948502806901
 30
0.0
 10
27.42167815167736
 20
10.45413561033176
 30
0.0
 10
27.56358290867707
 20
10.37188249496525
 30
0.0
 10
27.81912111013995
 20
10.20632730253691
 30
0.0
 10
27.93334409751156
 20
10.12256442392535
 30
0.0
 10
28.12465410050773
 20
9.959776065294758
 30
0.0
 10
28.19852628192663
 20
9.88362332984692
 30
0.0
 10
28.30034424137145
 20
9.746525256269424
 30
0.0
 10
28.32694499561686
 20
9.68671987678315
 30
0.0
 10
28.33183433303824
 20
9.592199578476482
 30
0.0
 10
28.31008206882962
 20
9.556438809965075
 30
0.0
 10
28.22621503435862
 20
9.510695606764058
 30
0.0
 10
28.16410267836744
 20
9.499999999999993
 30
0.0
 10
28.08561460241026
 20
9.499999999999993
 30
0.0
  0
SPLINE
  5
19A
330
16A
100
AcDbEntity
  8
0
  6
Continuous
 62
     7
370
    25
100
AcDbSpline
210
0.0
220
0.0
230
1.0
 70
     8
 71
     3
 72
    10
 73
     6
 74
     0
 42
0.000000001
 43
0.00000001
 40
0.0
 40
0.0
 40
0.0
 40
0.0
 40
0.5
 40
0.5
 40
1.0
 40
1.0
 40
1.0
 40
1.0
 10
26.25129974432169
 20
10.96446609406726
 30
0.0
 10
25.72148304827216
 20
11.14583079024306
 30
0.0
 10
25.17244546488791
 20
11.27924716174346
 30
0.0
 10
24.03852803469185
 20
11.45666798249558
 30
0.0
 10
23.44992236554869
 20
11.50000000000001
 30
0.0
 10
22.86178268821145
 20
11.50000000000001
 30
0.0
  0
SPLINE
  5
19D
330
16A
100
AcDbEntity
  8
0
  6
Continuous
 62
     7
370
    25
100
AcDbSpline
210
0.0
220
0.0
230
1.0
 70
     8
 71
     3
 72
    11
 73
     7
 74
     0
 42
0.000000001
 43
0.00000001
 40
0.0
 40
0.0
 40
0.0
 40
0.0
 40
0.3006980225183002
 40
0.6034248749463238
 40
0.9126488703718139
 40
1.0
 40
1.0
 40
1.0
 40
1.0
 10
23.10093341966137
 20
14.5
 30
0.0
 10
23.50793631592148
 20
14.49086864490837
 30
0.0
 10
24.32468818452947
 20
14.47254432485425
 30
0.0
 10
25.54971180055482
 20
14.3096600749851
 30
0.0
 10
26.48193812127266
 20
14.13435884889869
 30
0.0
 10
26.99444413316364
 20
13.97513971754834
 30
0.0
 10
27.10733063625394
 20
13.94006951242644
 30
0.0
  0
SPLINE
  5
19E
330
16A
100
AcDbEntity
  8
0
  6
Continuous
 62
     7
370
    25
100
AcDbSpline
210
0.0
220
0.0
230
1.0
 70
     8
 71
     3
 72
     9
 73
     5
 74
     0
 42
0.000000001
 43
0.00000001
 40
0.0
 40
0.0
 40
0.0
 40
0.0
 40
0.1976648645716071
 40
1.0
 40
1.0
 40
1.0
 40
1.0
 10
38.76237759729003
 20
3.004533416345674
 30
0.0
 10
38.76827090024733
 20
3.003343492880558
 30
0.0
 10
38.79808552091892
 20
2.997323589102033
 30
0.0
 10
38.82865634286058
 20
2.998808557599488
 30
0.0
 10
38.85318438742329
 20
3.0
 30
0.0
  0
SPLINE
  5
1A1
330
16A
100
AcDbEntity
  8
0
  6
Continuous
 62
     7
370
    25
100
AcDbSpline
210
0.0
220
0.0
230
1.0
 70
     8
 71
     3
 72
    12
 73
     8
 74
     0
 42
0.000000001
 43
0.00000001
 40
0.0
 40
0.0
 40
0.0
 40
0.0
 40
0.2499999999999997
 40
0.2499999999999997
 40
0.4999999999999993
 40
0.4999999999999993
 40
1.0
 40
1.0
 40
1.0
 40
1.0
 10
44.85382508772246
 20
3.0
 30
0.0
 10
44.86393499136231
 20
3.0
 30
0.0
 10
44.87369745744029
 20
2.974131650638991
 30
0.0
 10
44.89172555808412
 20
2.874044043142283
 30
0.0
 10
44.89985076586841
 20
2.80002962183778
 30
0.0
 10
44.91997889550806
 20
2.523580486139005
 30
0.0
 10
44.92765017224917
 20
2.26451120190736
 30
0.0
 10
44.92765017224916
 20
2.0
 30
0.0
  0
LINE
  5
1AE
330
16A
100
AcDbEntity
  8
0
  6
Continuous
 62
     7
370
    25
100
AcDbLine
 10
-45.4276501722
 20
2.0
 30
0.0
 11
-45.4276501722
 21
0.4312903887
 31
0.0
  0
LINE
  5
1AF
330
16A
100
AcDbEntity
  8
0
  6
Continuous
 62
     7
370
    25
100
AcDbLine
 10
-45.4262820697
 20
2.0127447976
 30
0.0
 11
-45.4263051547
 21
2.0000007674
 31
0.0
  0
LINE
  5
1B0
330
16A
100
AcDbEntity
  8
0
  6
Continuous
 62
     7
370
    25
100
AcDbLine
 10
45.4276501722
 20
0.4312903887
 30
0.0
 11
45.4276501722
 21
2.0
 31
0.0
  0
LINE
  5
1B1
330
16A
100
AcDbEntity
  8
0
  6
Continuous
 62
     7
370
    25
100
AcDbLine
 10
-40.5
 20
0.0
 30
0.0
 11
-40.5
 21
-8.0
 31
0.0
  0
LINE
  5
1B2
330
16A
100
AcDbEntity
  8
0
  6
Continuous
 62
     7
370
    25
100
AcDbLine
 10
-34.5
 20
-8.0
 30
0.0
 11
-34.5
 21
0.0
 31
0.0
  0
LINE
  5
1B3
330
16A
100
AcDbEntity
  8
0
  6
Continuous
 62
     7
370
    25
100
AcDbLine
 10
34.5
 20
0.0
 30
0.0
 11
34.5
 21
-8.0
 31
0.0
  0
LINE
  5
1B4
330
16A
100
AcDbEntity
  8
0
  6
Continuous
 62
     7
370
    25
100
AcDbLine
 10
40.5
 20
-8.0
 30
0.0
 11
40.5
 21
0.0
 31
0.0
  0
LINE
  5
1B5
330
16A
100
AcDbEntity
  8
0
  6
Continuous
 62
     7
370
    25
100
AcDbLine
 10
-44.9276501722
 20
2.0
 30
0.0
 11
-44.9276501722
 21
0.0
 31
0.0
  0
LINE
  5
1B6
330
16A
100
AcDbEntity
  8
0
  6
Continuous
 62
     7
370
    25
100
AcDbLine
 10
-23.3754010631
 20
11.5
 30
0.0
 11
23.3754010631
 21
11.5
 31
0.0
  0
LINE
  5
1B7
330
16A
100
AcDbEntity
  8
0
  6
Continuous
 62
     7
370
    25
100
AcDbLine
 10
-38.8531843874
 20
2.0
 30
0.0
 11
-45.4276501722
 21
2.0
 31
0.0
  0
LINE
  5
1B8
330
16A
100
AcDbEntity
  8
0
  6
Continuous
 62
     7
370
    25
100
AcDbLine
 10
23.1009334197
 20
13.5
 30
0.0
 11
-23.1009334197
 21
13.5
 31
0.0
  0
LINE
  5
1B9
330
16A
100
AcDbEntity
  8
0
  6
Continuous
 62
     7
370
    25
100
AcDbLine
 10
45.4276501722
 20
2.0
 30
0.0
 11
38.8531843874
 21
2.0
 31
0.0
  0
LINE
  5
1BA
330
16A
100
AcDbEntity
  8
0
  6
Continuous
 62
     7
370
    25
100
AcDbLine
 10
44.9276501722
 20
0.0
 30
0.0
 11
44.9276501722
 21
2.0
 31
0.0
  0
LINE
  5
1BB
330
16A
100
AcDbEntity
  8
0
  6
Continuous
 62
     7
370
    25
100
AcDbLine
 10
-44.8538250877
 20
3.0
 30
0.0
 11
-38.8531843874
 21
3.0
 31
0.0
  0
LINE
  5
1BC
330
16A
100
AcDbEntity
  8
0
  6
Continuous
 62
     7
370
    25
100
AcDbLine
 10
-38.8531843874
 20
3.0
 30
0.0
 11
-38.8531843874
 21
2.0
 31
0.0
  0
LINE
  5
1BD
330
16A
100
AcDbEntity
  8
0
  6
Continuous
 62
     7
370
    25
100
AcDbLine
 10
34.1570310357
 20
3.59375
 30
0.0
 11
-34.1570310357
 21
3.59375
 31
0.0
  0
LINE
  5
1BE
330
16A
100
AcDbEntity
  8
0
  6
Continuous
 62
     7
370
    25
100
AcDbLine
 10
-44.9951993492
 20
0.0
 30
0.0
 11
44.9951993492
 21
0.0
 31
0.0
  0
LINE
  5
1BF
330
16A
100
AcDbEntity
  8
0
  6
Continuous
 62
     7
370
    25
100
AcDbLine
 10
-23.1009334197
 20
14.5
 30
0.0
 11
-23.1009334197
 21
13.5
 31
0.0
  0
LINE
  5
1C0
330
16A
100
AcDbEntity
  8
0
  6
Continuous
 62
     7
370
    25
100
AcDbLine
 10
-23.1009334197
 20
14.5
 30
0.0
 11
23.1009334197
 21
14.5
 31
0.0
  0
LINE
  5
1C1
330
16A
100
AcDbEntity
  8
0
  6
Continuous
 62
     7
370
    25
100
AcDbLine
 10
23.1009334197
 20
14.5
 30
0.0
 11
23.1009334197
 21
13.5
 31
0.0
  0
LINE
  5
1C2
330
16A
100
AcDbEntity
  8
0
  6
Continuous
 62
     7
370
    25
100
AcDbLine
 10
38.8531843874
 20
3.0
 30
0.0
 11
38.8531843874
 21
2.0
 31
0.0
  0
LINE
  5
1C3
330
16A
100
AcDbEntity
  8
0
  6
Continuous
 62
     7
370
    25
100
AcDbLine
 10
38.8531843874
 20
3.0
 30
0.0
 11
44.8538250877
 21
3.0
 31
0.0
  0
LINE
  5
1C4
330
16A
100
AcDbEntity
  8
0
  6
Continuous
 62
     7
370
    25
100
AcDbLine
 10
26.2512997443
 20
10.9644660941
 30
0.0
 11
-26.2512997443
 21
10.9644660941
 31
0.0
  0
LINE
  5
1C5
330
16A
100
AcDbEntity
  8
0
  6
Continuous
 62
     7
370
    25
100
AcDbLine
 10
-28.0856146024
 20
9.5
 30
0.0
 11
28.0856146024
 21
9.5
 31
0.0
  0
LINE
  5
1C6
330
16A
100
AcDbEntity
  8
0
  6
Continuous
 62
     7
370
    25
100
AcDbLine
 10
-34.5
 20
-8.0
 30
0.0
 11
-40.5
 21
-8.0
 31
0.0
  0
LINE
  5
1C7
330
16A
100
AcDbEntity
  8
0
  6
Continuous
 62
     7
370
    25
100
AcDbLine
 10
40.5
 20
-8.0
 30
0.0
 11
34.5
 21
-8.0
 31
0.0
  0
LINE
  5
1C8
330
16A
100
AcDbEntity
  8
0
  6
Continuous
 62
     8
370
    25
100
AcDbLine
 10
-36.8841491786
 20
4.442193876
 30
0.0
 11
-35.9259028515
 21
4.15625
 31
0.0
  0
LINE
  5
1C9
330
16A
100
AcDbEntity
  8
0
  6
Continuous
 62
     8
370
    25
100
AcDbLine
 10
36.8841492148
 20
4.4421938868
 30
0.0
 11
35.9259028515
 21
4.15625
 31
0.0
  0
VIEWPORT
  5
378
330
16A
100
AcDbEntity
  8
0
100
AcDbViewport
 10
0.0
 20
0.0
 30
0.0
 40
205.6
 41
156.0
 68
     1
 69
     1
 12
0.0
 22
-20.0
 13
0.0
 23
0.0
 14
10.0
 24
10.0
 15
10.0
 25
10.0
 16
0.0
 26
0.0
 36
1.0
 17
0.0
 27
0.0
 37
0.0
 42
50.0
 43
0.0
 44
0.0
 45
70.3156390604
 50
0.0
 51
0.0
 72
   100
 90
   557152
  1

281
     0
 71
     1
 74
     0
110
0.0
120
0.0
130
0.0
111
1.0
121
0.0
131
0.0
112
0.0
122
1.0
132
0.0
 79
     0
146
0.0
  0
ENDBLK
  5
16D
330
16A
100
AcDbEntity
  8
0
100
AcDbBlockEnd
  0
BLOCK
  5
1CC
330
1CA
100
AcDbEntity
  8
0
100
AcDbBlockBegin
  2
*Paper_Space2
 70
     0
 10
0.0
 20
0.0
 30
0.0
  3
*Paper_Space2
  1

  0
SPLINE
  5
1D7
330
1CA
100
AcDbEntity
  8
0
  6
Continuous
 62
     7
370
    25
100
AcDbSpline
210
0.0
220
0.0
230
1.0
 70
     8
 71
     3
 72
    10
 73
     6
 74
     0
 42
0.000000001
 43
0.00000001
 40
0.0
 40
0.0
 40
0.0
 40
0.0
 40
0.5
 40
0.5
 40
1.0
 40
1.0
 40
1.0
 40
1.0
 10
0.5702775290957924
 20
2.0
 30
0.0
 10
0.5702775290957924
 20
2.133570206189193
 30
0.0
 10
0.6266106544190568
 20
2.263903929974419
 30
0.0
 10
0.8143007363336334
 20
2.447367870737764
 30
0.0
 10
0.9438430850303992
 20
2.499999999999999
 30
0.0
 10
1.075786791543281
 20
2.5
 30
0.0
  0
SPLINE
  5
1D9
330
1CA
100
AcDbEntity
  8
0
  6
Continuous
 62
     7
370
    25
100
AcDbSpline
210
0.0
220
0.0
230
1.0
 70
     8
 71
     3
 72
    12
 73
     8
 74
     0
 42
0.000000001
 43
0.00000001
 40
0.0
 40
0.0
 40
0.0
 40
0.0
 40
0.2499999999999997
 40
0.2499999999999997
 40
0.4999999999999993
 40
0.4999999999999993
 40
1.0
 40
1.0
 40
1.0
 40
1.0
 10
1.000000000000001
 20
3.0
 30
0.0
 10
0.8681420155882795
 20
3.0
 30
0.0
 10
0.7388226840658665
 20
2.974131650638991
 30
0.0
 10
0.4968170573412742
 20
2.874044043142283
 30
0.0
 10
0.38601874422
 20
2.80002962183778
 30
0.0
 10
0.1089640929779027
 20
2.523580486139005
 30
0.0
 10
0.0
 20
2.26451120190736
 30
0.0
 10
0.0
 20
2.0
 30
0.0
  0
SPLINE
  5
1DB
330
1CA
100
AcDbEntity
  8
0
  6
Continuous
 62
     7
370
    25
100
AcDbSpline
210
0.0
220
0.0
230
1.0
 70
     8
 71
     3
 72
    12
 73
     8
 74
     0
 42
0.000000001
 43
0.00000001
 40
0.0
 40
0.0
 40
0.0
 40
0.0
 40
0.25
 40
0.25
 40
0.5
 40
0.5
 40
1.0
 40
1.0
 40
1.0
 40
1.0
 10
0.0045839034752727
 20
0.0
 30
0.0
 10
0.0155076577473719
 20
0.0
 30
0.0
 10
0.0459871088869419
 20
0.0201648832644976
 30
0.0
 10
0.1285332229774769
 20
0.0854064995171287
 30
0.0
 10
0.1792713765968387
 20
0.1292157065372716
 30
0.0
 10
0.3406413000412966
 20
0.274488563250924
 30
0.0
 10
0.4587155045682155
 20
0.3879350709181345
 30
0.0
 10
0.5702775290957924
 20
0.5
 30
0.0
  0
SPLINE
  5
1E1
330
1CA
100
AcDbEntity
  8
0
  6
Continuous
 62
     7
370
    25
100
AcDbSpline
210
0.0
220
0.0
230
1.0
 70
     8
 71
     3
 72
    12
 73
     8
 74
     0
 42
0.000000001
 43
0.00000001
 40
0.0
 40
0.0
 40
0.0
 40
0.0
 40
0.4999999999999968
 40
0.4999999999999968
 40
0.7499999999999983
 40
0.7499999999999983
 40
1.0
 40
1.0
 40
1.0
 40
1.0
 10
1.180447665410547
 20
4.437500000000001
 30
0.0
 10
1.167876485673954
 20
4.014567297804843
 30
0.0
 10
1.141457524021269
 20
3.64643672436312
 30
0.0
 10
1.09210531324138
 20
3.264702242393812
 30
0.0
 10
1.074357161533812
 20
3.166971885729262
 30
0.0
 10
1.037331399413297
 20
3.033674056476639
 30
0.0
 10
1.018610755726211
 20
3.0
 30
0.0
 10
1.000000000000001
 20
3.0
 30
0.0
  0
SPLINE
  5
1E3
330
1CA
100
AcDbEntity
  8
0
  6
Continuous
 62
     7
370
    25
100
AcDbSpline
210
0.0
220
0.0
230
1.0
 70
    24
 71
     3
 72
    18
 73
    14
 74
     0
 42
0.000000001
 43
0.00000001
 40
0.0
 40
0.0
 40
0.0
 40
0.0
 40
0.2499999999999978
 40
0.2499999999999978
 40
0.4999999999999956
 40
0.4999999999999956
 40
0.6249999999999967
 40
0.6249999999999967
 40
0.7499999999999978
 40
0.7499999999999978
 40
0.8749999999999989
 40
0.8749999999999989
 40
1.0
 40
1.0
 40
1.0
 40
1.0
 10
0.0
 20
2.0
 30
0.0
 10
0.0
 20
2.0
 30
0.0
 10
0.0
 20
2.050687326057508
 30
0.0
 10
0.0
 20
2.252618391329797
 30
0.0
 10
0.0
 20
2.400624465994604
 30
0.0
 10
0.0
 20
2.688678529174843
 30
0.0
 10
0.0
 20
2.796027403254408
 30
0.0
 10
0.0
 20
3.026109774818216
 30
0.0
 10
0.0
 20
3.149677154322196
 30
0.0
 10
0.0
 20
3.414215347079083
 30
0.0
 10
0.0
 20
3.555825159873684
 30
0.0
 10
0.0
 20
3.847853578009041
 30
0.0
 10
0.0
 20
3.999268329366218
 30
0.0
 10
0.0
 20
4.156250000000001
 30
0.0
  0
SPLINE
  5
1E4
330
1CA
100
AcDbEntity
  8
0
  6
Continuous
 62
     7
370
    25
100
AcDbSpline
210
0.0
220
0.0
230
1.0
 70
     8
 71
     3
 72
    26
 73
    22
 74
     0
 42
0.000000001
 43
0.00000001
 40
0.0
 40
0.0
 40
0.0
 40
0.0
 40
0.1249999999999996
 40
0.1249999999999996
 40
0.2499999999999992
 40
0.2499999999999992
 40
0.3124999999999989
 40
0.3124999999999989
 40
0.3749999999999988
 40
0.3749999999999988
 40
0.4999999999999989
 40
0.4999999999999989
 40
0.562499999999999
 40
0.562499999999999
 40
0.624999999999999
 40
0.624999999999999
 40
0.7499999999999993
 40
0.7499999999999993
 40
0.8749999999999998
 40
0.8749999999999998
 40
1.0
 40
1.0
 40
1.0
 40
1.0
 10
1.000000000000001
 20
14.5
 30
0.0
 10
1.015083637822812
 20
14.5
 30
0.0
 10
1.028740226654411
 20
14.44166597140073
 30
0.0
 10
1.05386719428956
 20
14.21110565614219
 30
0.0
 10
1.065334648494794
 20
14.03889779337809
 30
0.0
 10
1.08123844000322
 20
13.69120874370346
 30
0.0
 10
1.086322638295337
 20
13.56009588640515
 30
0.0
 10
1.095932454372246
 20
13.27237455159795
 30
0.0
 10
1.100483011597892
 20
13.11528517921771
 30
0.0
 10
1.113467900194093
 20
12.60484219910409
 30
0.0
 10
1.121240536874114
 20
12.21256007032521
 30
0.0
 10
1.131843921358764
 20
11.54384757563764
 30
0.0
 10
1.135215316323334
 20
11.30633066929025
 30
0.0
 10
1.141557114861677
 20
10.80946368672106
 30
0.0
 10
1.144523443024219
 20
10.55074203648634
 30
0.0
 10
1.152881501499253
 20
9.744390709410887
 30
0.0
 10
1.157737105445367
 20
9.166766416411557
 30
0.0
 10
1.166261148841035
 20
7.930317302084228
 30
0.0
 10
1.169937926953003
 20
7.26772903888983
 30
0.0
 10
1.176065287321535
 20
5.891001006436607
 30
0.0
 10
1.178537513164549
 20
5.173901830423657
 30
0.0
 10
1.180447665410547
 20
4.437500000000002
 30
0.0
  0
SPLINE
  5
1E6
330
1CA
100
AcDbEntity
  8
0
  6
Continuous
 62
     7
370
    25
100
AcDbSpline
210
0.0
220
0.0
230
1.0
 70
     8
 71
     3
 72
    12
 73
     8
 74
     0
 42
0.000000001
 43
0.00000001
 40
0.0
 40
0.0
 40
0.0
 40
0.0
 40
0.25
 40
0.25
 40
0.5
 40
0.5
 40
1.0
 40
1.0
 40
1.0
 40
1.0
 10
3.227597149796785
 20
13.53350168779611
 30
0.0
 10
3.069828929571868
 20
13.69528424039932
 30
0.0
 10
2.929649049747525
 20
13.83696851821844
 30
0.0
 10
2.683580526375122
 20
14.08045495517056
 30
0.0
 10
2.577459966808082
 20
14.1824342709703
 30
0.0
 10
2.315148692137139
 20
14.42323399043999
 30
0.0
 10
2.212079460127567
 20
14.5
 30
0.0
 10
2.171572875253821
 20
14.5
 30
0.0
  0
SPLINE
  5
1E7
330
1CA
100
AcDbEntity
  8
0
  6
Continuous
 62
     7
370
    25
100
AcDbSpline
210
0.0
220
0.0
230
1.0
 70
     8
 71
     3
 72
    18
 73
    14
 74
     0
 42
0.000000001
 43
0.00000001
 40
0.0
 40
0.0
 40
0.0
 40
0.0
 40
0.2500000000000002
 40
0.2500000000000002
 40
0.5000000000000004
 40
0.5000000000000004
 40
0.6250000000000003
 40
0.6250000000000003
 40
0.7500000000000002
 40
0.7500000000000002
 40
0.8750000000000001
 40
0.8750000000000001
 40
1.0
 40
1.0
 40
1.0
 40
1.0
 10
3.227597149796785
 20
13.53350168779611
 30
0.0
 10
3.351743227827417
 20
13.40619677574957
 30
0.0
 10
3.496789519794763
 20
13.26840226029565
 30
0.0
 10
3.85846582338234
 20
12.9756070766202
 30
0.0
 10
4.070854179597429
 20
12.82360984714546
 30
0.0
 10
4.464275578119435
 20
12.604924184199
 30
0.0
 10
4.604841064121831
 20
12.53555680057785
 30
0.0
 10
4.909802782258197
 20
12.40810736285846
 30
0.0
 10
5.072601909190355
 20
12.35109398957022
 30
0.0
 10
5.406263345327178
 20
12.25902356803289
 30
0.0
 10
5.581778046806459
 20
12.22305719624701
 30
0.0
 10
5.921095111659027
 20
12.17736914841495
 30
0.0
 10
6.08695419183308
 20
12.16666666666667
 30
0.0
 10
6.24949405124766
 20
12.16666666666667
 30
0.0
  0
SPLINE
  5
1E9
330
1CA
100
AcDbEntity
  8
0
  6
Continuous
 62
     7
370
    25
100
AcDbSpline
210
0.0
220
0.0
230
1.0
 70
    24
 71
     3
 72
    24
 73
    20
 74
     0
 42
0.000000001
 43
0.00000001
 40
0.0
 40
0.0
 40
0.0
 40
0.0
 40
0.1249999999999992
 40
0.1249999999999992
 40
0.2499999999999983
 40
0.2499999999999983
 40
0.3749999999999976
 40
0.3749999999999976
 40
0.4374999999999973
 40
0.4374999999999973
 40
0.4999999999999971
 40
0.4999999999999971
 40
0.6249999999999972
 40
0.6249999999999972
 40
0.6874999999999974
 40
0.6874999999999974
 40
0.7499999999999976
 40
0.7499999999999976
 40
1.0
 40
1.0
 40
1.0
 40
1.0
 10
0.0
 20
4.156250000000003
 30
0.0
 10
0.0
 20
4.841902297082067
 30
0.0
 10
0.0
 20
5.503308355421225
 30
0.0
 10
0.0
 20
6.778857150862748
 30
0.0
 10
0.0
 20
7.396476449963487
 30
0.0
 10
0.0
 20
8.547221760679385
 30
0.0
 10
0.0
 20
9.08461736864448
 30
0.0
 10
0.0
 20
9.834552127840878
 30
0.0
 10
0.0
 20
10.07512561858744
 30
0.0
 10
0.0
 20
10.53704737331463
 30
0.0
 10
0.0
 20
10.75778065960188
 30
0.0
 10
0.0
 20
11.37909690477184
 30
0.0
 10
0.0
 20
11.74336356707021
 30
0.0
 10
0.0
 20
12.21709627722448
 30
0.0
 10
0.0
 20
12.36283865869483
 30
0.0
 10
0.0
 20
12.62968950391517
 30
0.0
 10
0.0
 20
12.75123861057357
 30
0.0
 10
0.0
 20
13.28820290926212
 30
0.0
 10
0.0
 20
13.50000000000001
 30
0.0
 10
0.0
 20
13.5
 30
0.0
  0
SPLINE
  5
1EA
330
1CA
100
AcDbEntity
  8
0
  6
Continuous
 62
     7
370
    25
100
AcDbSpline
210
0.0
220
0.0
230
1.0
 70
     8
 71
     3
 72
    18
 73
    14
 74
     0
 42
0.000000001
 43
0.00000001
 40
0.0
 40
0.0
 40
0.0
 40
0.0
 40
0.1250000000000002
 40
0.1250000000000002
 40
0.2500000000000003
 40
0.2500000000000003
 40
0.3750000000000005
 40
0.3750000000000005
 40
0.5000000000000007
 40
0.5000000000000007
 40
0.7500000000000003
 40
0.7500000000000003
 40
1.0
 40
1.0
 40
1.0
 40
1.0
 10
5.828427124746201
 20
12.5
 30
0.0
 10
5.747105457117082
 20
12.5
 30
0.0
 10
5.656902027074222
 20
12.50488233527765
 30
0.0
 10
5.459575942203617
 20
12.5317865561999
 30
0.0
 10
5.352211451094137
 20
12.55490647052574
 30
0.0
 10
5.158966687901025
 20
12.61267572215753
 30
0.0
 10
5.07284537495176
 20
12.64649969124705
 30
0.0
 10
4.927582783053493
 20
12.71258660427702
 30
0.0
 10
4.866952054768229
 20
12.7452161940285
 30
0.0
 10
4.70964588926767
 20
12.83773329134672
 30
0.0
 10
4.633567545040148
 20
12.89407758240646
 30
0.0
 10
4.506551122658641
 20
12.99689652330593
 30
0.0
 10
4.456693800976087
 20
13.04330619902393
 30
0.0
 10
4.414213562373105
 20
13.08578643762691
 30
0.0
  0
SPLINE
  5
1EE
330
1CA
100
AcDbEntity
  8
0
  6
Continuous
 62
     7
370
    25
100
AcDbSpline
210
0.0
220
0.0
230
1.0
 70
    24
 71
     3
 72
    12
 73
     8
 74
     0
 42
0.000000001
 43
0.00000001
 40
0.0
 40
0.0
 40
0.0
 40
0.0
 40
0.500000000000001
 40
0.500000000000001
 40
0.7500000000000004
 40
0.7500000000000004
 40
1.0
 40
1.0
 40
1.0
 40
1.0
 10
3.585786437626914
 20
13.9142135623731
 30
0.0
 10
3.585786437626918
 20
13.9142135623731
 30
0.0
 10
3.650270788960682
 20
13.84972921103933
 30
0.0
 10
3.856135137672204
 20
13.64386486232781
 30
0.0
 10
3.943714244386234
 20
13.55628575561378
 30
0.0
 10
4.153032376889642
 20
13.34696762311036
 30
0.0
 10
4.27493323290121
 20
13.22506676709879
 30
0.0
 10
4.414213562373108
 20
13.0857864376269
 30
0.0
  0
LINE
  5
1F4
330
1CA
100
AcDbEntity
  8
0
  6
Continuous
 62
     7
370
    25
100
AcDbLine
 10
40.0
 20
0.5
 30
0.0
 11
40.0
 21
2.5
 31
0.0
  0
LINE
  5
1F5
330
1CA
100
AcDbEntity
  8
0
  6
Continuous
 62
     7
370
    25
100
AcDbLine
 10
10.5
 20
0.0
 30
0.0
 11
10.5
 21
-8.0
 31
0.0
  0
LINE
  5
1F6
330
1CA
100
AcDbEntity
  8
0
  6
Continuous
 62
     7
370
    25
100
AcDbLine
 10
16.5
 20
-8.0
 30
0.0
 11
16.5
 21
0.0
 31
0.0
  0
LINE
  5
1F7
330
1CA
100
AcDbEntity
  8
0
  6
Continuous
 62
     7
370
    25
100
AcDbLine
 10
0.5702775291
 20
2.0
 30
0.0
 11
0.5702775291
 21
0.5
 31
0.0
  0
LINE
  5
1F8
330
1CA
100
AcDbEntity
  8
0
  6
Continuous
 62
     7
370
    25
100
AcDbLine
 10
0.5702775291
 20
2.0
 30
0.0
 11
0.0
 21
2.0
 31
0.0
  0
LINE
  5
1F9
330
1CA
100
AcDbEntity
  8
0
  6
Continuous
 62
     7
370
    25
100
AcDbLine
 10
39.5
 20
0.0
 30
0.0
 11
0.0
 21
0.0
 31
0.0
  0
LINE
  5
1FA
330
1CA
100
AcDbEntity
  8
0
  6
Continuous
 62
     7
370
    25
100
AcDbLine
 10
0.0
 20
0.0
 30
0.0
 11
0.0
 21
2.0
 31
0.0
  0
LINE
  5
1FB
330
1CA
100
AcDbEntity
  8
0
  6
Continuous
 62
     7
370
    25
100
AcDbLine
 10
1.0
 20
3.0
 30
0.0
 11
39.5
 21
3.0
 31
0.0
  0
LINE
  5
1FC
330
1CA
100
AcDbEntity
  8
0
  6
Continuous
 62
     7
370
    25
100
AcDbLine
 10
16.5
 20
-8.0
 30
0.0
 11
10.5
 21
-8.0
 31
0.0
  0
LINE
  5
1FD
330
1CA
100
AcDbEntity
  8
0
  6
Continuous
 62
     7
370
    25
100
AcDbLine
 10
1.0
 20
14.5
 30
0.0
 11
2.1715728753
 21
14.5
 31
0.0
  0
LINE
  5
1FE
330
1CA
100
AcDbEntity
  8
0
  6
Continuous
 62
     7
370
    25
100
AcDbLine
 10
5.8284271247
 20
12.5
 30
0.0
 11
24.8582722668
 21
12.5
 31
0.0
  0
LINE
  5
1FF
330
1CA
100
AcDbEntity
  8
0
  6
Continuous
 62
     8
370
    25
100
AcDbLine
 10
40.0
 20
2.5
 30
0.0
 11
1.0757867915
 21
2.5
 31
0.0
  0
LINE
  5
200
330
1CA
100
AcDbEntity
  8
0
  6
Continuous
 62
     8
370
    25
100
AcDbLine
 10
0.5702775291
 20
0.5
 30
0.0
 11
40.0
 21
0.5
 31
0.0
  0
LINE
  5
201
330
1CA
100
AcDbEntity
  8
0
  6
Continuous
 62
     8
370
    25
100
AcDbLine
 10
1.1804476654
 20
4.4375
 30
0.0
 11
31.6599061522
 21
4.4375
 31
0.0
  0
LINE
  5
202
330
1CA
100
AcDbEntity
  8
0
  6
Continuous
 62
     8
370
    25
100
AcDbLine
 10
25.9638138635
 20
12.1666666667
 30
0.0
 11
6.2494940512
 21
12.1666666667
 31
0.0
  0
ARC
  5
203
330
1CA
100
AcDbEntity
  8
0
  6
Continuous
 62
     7
370
    25
100
AcDbCircle
 10
39.5
 20
0.5
 30
0.0
 40
0.5000000000000003
100
AcDbArc
 50
270.0
 51
0.0
  0
ARC
  5
204
330
1CA
100
AcDbEntity
  8
0
  6
Continuous
 62
     7
370
    25
100
AcDbCircle
 10
39.5
 20
2.5
 30
0.0
 40
0.5
100
AcDbArc
 50
0.0
 51
90.0
  0
ARC
  5
205
330
1CA
100
AcDbEntity
  8
0
  6
Continuous
 62
     7
370
    25
100
AcDbCircle
 10
33.5791752188
 20
5.0
 30
0.0
 40
2.000000000000022
100
AcDbArc
 50
196.3348227807
 51
270.0
  0
ARC
  5
206
330
1CA
100
AcDbEntity
  8
0
  6
Continuous
 62
     7
370
    25
100
AcDbCircle
 10
18.225022686
 20
0.5
 30
0.0
 40
13.99999999999996
100
AcDbArc
 50
16.3348227807
 51
56.4426902381
  0
ARC
  5
207
330
1CA
100
AcDbEntity
  8
0
  6
Continuous
 62
     7
370
    25
100
AcDbCircle
 10
24.8582722668
 20
10.5
 30
0.0
 40
1.99999999999998
100
AcDbArc
 50
56.4426902381
 51
90.0
  0
ARC
  5
208
330
1CA
100
AcDbEntity
  8
0
  6
Continuous
 62
     7
370
    25
100
AcDbCircle
 10
0.1942647351
 20
2.6221281811
 30
0.0
 40
0.8899418118870717
100
AcDbArc
 50
352.1123148749
 51
25.1255269377
  0
ARC
  5
209
330
1CA
100
AcDbEntity
  8
0
  6
Continuous
 62
     7
370
    25
100
AcDbCircle
 10
0.861559311
 20
3.1580400422
 30
0.0
 40
1.318600609037409
100
AcDbArc
 50
76.0049261864
 51
130.7976181827
  0
ARC
  5
20A
330
1CA
100
AcDbEntity
  8
0
  6
Continuous
 62
     7
370
    25
100
AcDbCircle
 10
1.0
 20
13.5
 30
0.0
 40
0.9999999999999982
100
AcDbArc
 50
90.0
 51
180.0
  0
ARC
  5
20B
330
1CA
100
AcDbEntity
  8
0
  6
Continuous
 62
     7
370
    25
100
AcDbCircle
 10
5.7441635047
 20
11.9609454279
 30
0.0
 40
0.5456007600678464
100
AcDbArc
 50
22.1513524522
 51
81.1155700554
  0
ARC
  5
20C
330
1CA
100
AcDbEntity
  8
0
  6
Continuous
 62
     7
370
    25
100
AcDbCircle
 10
3.3064302987
 20
11.9460886628
 30
0.0
 40
1.589369301721475
100
AcDbArc
 50
45.813552537
 51
92.8430527734
  0
ARC
  5
20D
330
1CA
100
AcDbEntity
  8
0
  6
Continuous
 62
     7
370
    25
100
AcDbCircle
 10
2.1715728753
 20
12.5
 30
0.0
 40
1.999999999999977
100
AcDbArc
 50
45.0
 51
90.0
  0
VIEWPORT
  5
37A
330
1CA
100
AcDbEntity
  8
0
100
AcDbViewport
 10
0.0
 20
0.0
 30
0.0
 40
205.6
 41
156.0
 68
     1
 69
     1
 12
0.0
 22
-20.0
 13
0.0
 23
0.0
 14
10.0
 24
10.0
 15
10.0
 25
10.0
 16
0.0
 26
0.0
 36
1.0
 17
0.0
 27
0.0
 37
0.0
 42
50.0
 43
0.0
 44
0.0
 45
70.3156390604
 50
0.0
 51
0.0
 72
   100
 90
   557152
  1

281
     0
 71
     1
 74
     0
110
0.0
120
0.0
130
0.0
111
1.0
121
0.0
131
0.0
112
0.0
122
1.0
132
0.0
 79
     0
146
0.0
  0
ENDBLK
  5
1CD
330
1CA
100
AcDbEntity
  8
0
100
AcDbBlockEnd
  0
BLOCK
  5
210
330
20E
100
AcDbEntity
  8
0
100
AcDbBlockBegin
  2
*Paper_Space3
 70
     0
 10
0.0
 20
0.0
 30
0.0
  3
*Paper_Space3
  1

  0
CIRCLE
  5
212
330
20E
100
AcDbEntity
  8
0
  6
Continuous
 62
     7
370
    25
100
AcDbCircle
 10
-37.5
 20
13.5
 30
0.0
 40
1.999999999999984
  0
CIRCLE
  5
213
330
20E
100
AcDbEntity
  8
0
  6
Continuous
 62
     7
370
    25
100
AcDbCircle
 10
-37.5
 20
13.5
 30
0.0
 40
2.999999999999996
  0
CIRCLE
  5
214
330
20E
100
AcDbEntity
  8
0
  6
Continuous
 62
     7
370
    25
100
AcDbCircle
 10
37.5
 20
13.5
 30
0.0
 40
2.000000000000002
  0
CIRCLE
  5
215
330
20E
100
AcDbEntity
  8
0
  6
Continuous
 62
     7
370
    25
100
AcDbCircle
 10
37.5
 20
13.5
 30
0.0
 40
3.000000000000002
  0
SPLINE
  5
21A
330
20E
100
AcDbEntity
  8
0
  6
Continuous
 62
     7
370
    25
100
AcDbSpline
210
0.0
220
0.0
230
1.0
 70
    24
 71
     3
 72
    20
 73
    16
 74
     0
 42
0.000000001
 43
0.00000001
 40
0.0
 40
0.0
 40
0.0
 40
0.0
 40
0.2500000000000023
 40
0.2500000000000023
 40
0.375000000000002
 40
0.375000000000002
 40
0.5000000000000017
 40
0.5000000000000017
 40
0.6250000000000012
 40
0.6250000000000012
 40
0.7500000000000009
 40
0.7500000000000009
 40
0.8750000000000004
 40
0.8750000000000004
 40
1.0
 40
1.0
 40
1.0
 40
1.0
 10
-39.01699869342993
 20
0.0
 30
0.0
 10
-38.47242688496614
 20
0.0
 30
0.0
 10
-37.94227740145069
 20
0.0
 30
0.0
 10
-37.16848795358791
 20
0.0
 30
0.0
 10
-36.91797796741321
 20
0.0
 30
0.0
 10
-36.44039395422497
 20
0.0
 30
0.0
 10
-36.21183552256814
 20
0.0
 30
0.0
 10
-35.77576464507982
 20
0.0
 30
0.0
 10
-35.56947680367148
 20
0.0
 30
0.0
 10
-35.19289156412328
 20
0.0
 30
0.0
 10
-35.02061532231619
 20
0.0
 30
0.0
 10
-34.7087563466529
 20
0.0
 30
0.0
 10
-34.56921410132654
 20
0.0
 30
0.0
 10
-34.33287722142116
 20
0.0
 30
0.0
 10
-34.23466884730741
 20
0.0
 30
0.0
 10
-34.1570310356927
 20
0.0
 30
0.0
  0
SPLINE
  5
21B
330
20E
100
AcDbEntity
  8
0
  6
Continuous
 62
     7
370
    25
100
AcDbSpline
210
0.0
220
0.0
230
1.0
 70
    24
 71
     3
 72
    18
 73
    14
 74
     0
 42
0.000000001
 43
0.00000001
 40
0.0
 40
0.0
 40
0.0
 40
0.0
 40
0.2500000000000013
 40
0.2500000000000013
 40
0.5000000000000027
 40
0.5000000000000027
 40
0.625000000000002
 40
0.625000000000002
 40
0.7500000000000013
 40
0.7500000000000013
 40
0.8750000000000007
 40
0.8750000000000007
 40
1.0
 40
1.0
 40
1.0
 40
1.0
 10
34.1570310356927
 20
0.0
 30
0.0
 10
34.31229327482668
 20
0.0
 30
0.0
 10
34.54728076632831
 20
0.0
 30
0.0
 10
35.17376811676326
 20
0.0
 30
0.0
 10
35.55168068488484
 20
0.0
 30
0.0
 10
36.20651809223681
 20
0.0
 30
0.0
 10
36.43773868089124
 20
0.0
 30
0.0
 10
36.91536714058508
 20
0.0
 30
0.0
 10
37.16322161175378
 20
0.0
 30
0.0
 10
37.6773498083249
 20
0.0
 30
0.0
 10
37.94278702805087
 20
0.0
 30
0.0
 10
38.47548374878136
 20
0.0
 30
0.0
 10
38.74474349565881
 20
0.0
 30
0.0
 10
39.01699869342993
 20
0.0
 30
0.0
  0
SPLINE
  5
21D
330
20E
100
AcDbEntity
  8
0
  6
Continuous
 62
     7
370
    25
100
AcDbSpline
210
0.0
220
0.0
230
1.0
 70
     8
 71
     3
 72
    12
 73
     8
 74
     0
 42
0.000000001
 43
0.00000001
 40
0.0
 40
0.0
 40
0.0
 40
0.0
 40
0.25
 40
0.25
 40
0.5
 40
0.5
 40
1.0
 40
1.0
 40
1.0
 40
1.0
 10
-44.99519934918165
 20
0.0045839034752727
 30
0.0
 10
-45.07531585017598
 20
0.0155076577473719
 30
0.0
 10
-45.14950439342616
 20
0.0459871088869419
 30
0.0
 10
-45.27022780479306
 20
0.1285332229774769
 30
0.0
 10
-45.31646883266713
 20
0.1792713765968387
 30
0.0
 10
-45.41835579376239
 20
0.3406413000412966
 30
0.0
 10
-45.43852443530161
 20
0.4587155045682155
 30
0.0
 10
-45.42268660414502
 20
0.5702775290957924
 30
0.0
  0
SPLINE
  5
21F
330
20E
100
AcDbEntity
  8
0
  6
Continuous
 62
     7
370
    25
100
AcDbSpline
210
0.0
220
0.0
230
1.0
 70
     8
 71
     3
 72
    12
 73
     8
 74
     0
 42
0.000000001
 43
0.00000001
 40
0.0
 40
0.0
 40
0.0
 40
0.0
 40
0.25
 40
0.25
 40
0.5
 40
0.5
 40
1.0
 40
1.0
 40
1.0
 40
1.0
 10
44.99519934918165
 20
0.0045839034752727
 30
0.0
 10
45.07531585017598
 20
0.0155076577473719
 30
0.0
 10
45.14950439342616
 20
0.0459871088869419
 30
0.0
 10
45.27022780479306
 20
0.1285332229774769
 30
0.0
 10
45.31646883266713
 20
0.1792713765968387
 30
0.0
 10
45.41835579376239
 20
0.3406413000412966
 30
0.0
 10
45.43852443530161
 20
0.4587155045682155
 30
0.0
 10
45.42268660414502
 20
0.5702775290957924
 30
0.0
  0
SPLINE
  5
225
330
20E
100
AcDbEntity
  8
0
  6
Continuous
 62
     7
370
    25
100
AcDbSpline
210
0.0
220
0.0
230
1.0
 70
     8
 71
     3
 72
    10
 73
     6
 74
     0
 42
0.000000001
 43
0.00000001
 40
0.0
 40
0.0
 40
0.0
 40
0.0
 40
0.5
 40
0.5
 40
1.0
 40
1.0
 40
1.0
 40
1.0
 10
26.25129974432169
 20
2.292893218813468
 30
0.0
 10
25.72148304827216
 20
2.111528522637667
 30
0.0
 10
25.17244546488791
 20
1.978112151137267
 30
0.0
 10
24.03852803469185
 20
1.80069133038514
 30
0.0
 10
23.44992236554869
 20
1.757359312880721
 30
0.0
 10
22.86178268821145
 20
1.757359312880721
 30
0.0
  0
SPLINE
  5
226
330
20E
100
AcDbEntity
  8
0
  6
Continuous
 62
     7
370
    25
100
AcDbSpline
210
0.0
220
0.0
230
1.0
 70
     8
 71
     3
 72
    20
 73
    16
 74
     0
 42
0.000000001
 43
0.00000001
 40
0.0
 40
0.0
 40
0.0
 40
0.0
 40
0.2500000000000002
 40
0.2500000000000002
 40
0.3750000000000002
 40
0.3750000000000002
 40
0.5000000000000002
 40
0.5000000000000002
 40
0.625
 40
0.625
 40
0.75
 40
0.75
 40
0.875
 40
0.875
 40
1.0
 40
1.0
 40
1.0
 40
1.0
 10
26.25129974432169
 20
2.292893218813468
 30
0.0
 10
26.61620266026444
 20
2.417805300627955
 30
0.0
 10
26.95890968912988
 20
2.574159344397798
 30
0.0
 10
27.42167815167736
 20
2.88762160013923
 30
0.0
 10
27.56358290867707
 20
3.003145863020473
 30
0.0
 10
27.81912111013995
 20
3.261728250648781
 30
0.0
 10
27.93334409751156
 20
3.405533437626181
 30
0.0
 10
28.12465410050773
 20
3.726351325803703
 30
0.0
 10
28.19852628192663
 20
3.897737087029424
 30
0.0
 10
28.30034424137145
 20
4.265425063586986
 30
0.0
 10
28.32694499561686
 20
4.4598733031594
 30
0.0
 10
28.33183433303824
 20
4.851646632707275
 30
0.0
 10
28.31008206882962
 20
5.053640774928314
 30
0.0
 10
28.22621503435862
 20
5.446415607746784
 30
0.0
 10
28.16410267836744
 20
5.640123529569113
 30
0.0
 10
28.08561460241026
 20
5.828427124746217
 30
0.0
  0
SPLINE
  5
228
330
20E
100
AcDbEntity
  8
0
  6
Continuous
 62
     7
370
    25
100
AcDbSpline
210
0.0
220
0.0
230
1.0
 70
     8
 71
     3
 72
    20
 73
    16
 74
     0
 42
0.000000001
 43
0.00000001
 40
0.0
 40
0.0
 40
0.0
 40
0.0
 40
0.2500000000000002
 40
0.2500000000000002
 40
0.3750000000000002
 40
0.3750000000000002
 40
0.5000000000000002
 40
0.5000000000000002
 40
0.625
 40
0.625
 40
0.75
 40
0.75
 40
0.875
 40
0.875
 40
1.0
 40
1.0
 40
1.0
 40
1.0
 10
-26.25129974432169
 20
2.292893218813468
 30
0.0
 10
-26.61620266026444
 20
2.417805300627955
 30
0.0
 10
-26.95890968912988
 20
2.574159344397798
 30
0.0
 10
-27.42167815167736
 20
2.88762160013923
 30
0.0
 10
-27.56358290867707
 20
3.003145863020473
 30
0.0
 10
-27.81912111013995
 20
3.261728250648781
 30
0.0
 10
-27.93334409751156
 20
3.405533437626181
 30
0.0
 10
-28.12465410050773
 20
3.726351325803703
 30
0.0
 10
-28.19852628192663
 20
3.897737087029424
 30
0.0
 10
-28.30034424137145
 20
4.265425063586986
 30
0.0
 10
-28.32694499561686
 20
4.4598733031594
 30
0.0
 10
-28.33183433303824
 20
4.851646632707275
 30
0.0
 10
-28.31008206882962
 20
5.053640774928314
 30
0.0
 10
-28.22621503435862
 20
5.446415607746784
 30
0.0
 10
-28.16410267836744
 20
5.640123529569113
 30
0.0
 10
-28.08561460241026
 20
5.828427124746217
 30
0.0
  0
SPLINE
  5
229
330
20E
100
AcDbEntity
  8
0
  6
Continuous
 62
     7
370
    25
100
AcDbSpline
210
0.0
220
0.0
230
1.0
 70
     8
 71
     3
 72
    10
 73
     6
 74
     0
 42
0.000000001
 43
0.00000001
 40
0.0
 40
0.0
 40
0.0
 40
0.0
 40
0.5
 40
0.5
 40
1.0
 40
1.0
 40
1.0
 40
1.0
 10
-26.25129974432169
 20
2.292893218813468
 30
0.0
 10
-25.72148304827216
 20
2.111528522637667
 30
0.0
 10
-25.17244546488791
 20
1.978112151137267
 30
0.0
 10
-24.03852803469185
 20
1.80069133038514
 30
0.0
 10
-23.44992236554869
 20
1.757359312880721
 30
0.0
 10
-22.86178268821145
 20
1.757359312880721
 30
0.0
  0
SPLINE
  5
22B
330
20E
100
AcDbEntity
  8
0
  6
Continuous
 62
     7
370
    25
100
AcDbSpline
210
0.0
220
0.0
230
1.0
 70
    24
 71
     3
 72
    24
 73
    20
 74
     0
 42
0.000000001
 43
0.00000001
 40
0.0
 40
0.0
 40
0.0
 40
0.0
 40
0.2500000000000011
 40
0.2500000000000011
 40
0.3750000000000014
 40
0.3750000000000014
 40
0.5000000000000013
 40
0.5000000000000013
 40
0.5625000000000013
 40
0.5625000000000013
 40
0.6250000000000013
 40
0.6250000000000013
 40
0.750000000000001
 40
0.750000000000001
 40
0.8125000000000006
 40
0.8125000000000006
 40
0.8750000000000001
 40
0.8750000000000001
 40
1.0
 40
1.0
 40
1.0
 40
1.0
 10
-34.1570310356927
 20
0.0
 30
0.0
 10
-33.8134576472581
 20
0.0
 30
0.0
 10
-33.29230025371841
 20
0.0
 30
0.0
 10
-32.24793026682337
 20
0.0
 30
0.0
 10
-31.86225556179915
 20
0.0
 30
0.0
 10
-31.02639474061096
 20
0.0
 30
0.0
 10
-30.57508718105047
 20
0.0
 30
0.0
 10
-29.84687828138967
 20
0.0
 30
0.0
 10
-29.59610960308472
 20
0.0
 30
0.0
 10
-29.08631762759002
 20
0.0
 30
0.0
 10
-28.82626947160844
 20
0.0
 30
0.0
 10
-28.03099025332625
 20
0.0
 30
0.0
 10
-27.48071574078303
 20
0.0
 30
0.0
 10
-26.6247629385724
 20
0.0
 30
0.0
 10
-26.33380922638673
 20
0.0
 30
0.0
 10
-25.75081244932202
 20
0.0
 30
0.0
 10
-25.45768407577216
 20
0.0
 30
0.0
 10
-24.57350317375176
 20
0.0
 30
0.0
 10
-23.97768312085501
 20
0.0
 30
0.0
 10
-23.37540106307542
 20
0.0
 30
0.0
  0
SPLINE
  5
22C
330
20E
100
AcDbEntity
  8
0
  6
Continuous
 62
     7
370
    25
100
AcDbSpline
210
0.0
220
0.0
230
1.0
 70
    24
 71
     3
 72
    24
 73
    20
 74
     0
 42
0.000000001
 43
0.00000001
 40
0.0
 40
0.0
 40
0.0
 40
0.0
 40
0.2499999999999998
 40
0.2499999999999998
 40
0.3124999999999997
 40
0.3124999999999997
 40
0.3749999999999997
 40
0.3749999999999997
 40
0.4999999999999994
 40
0.4999999999999994
 40
0.5624999999999994
 40
0.5624999999999994
 40
0.6249999999999993
 40
0.6249999999999993
 40
0.7499999999999996
 40
0.7499999999999996
 40
0.8749999999999998
 40
0.8749999999999998
 40
1.0
 40
1.0
 40
1.0
 40
1.0
 10
23.37540106307542
 20
0.0
 30
0.0
 10
24.58013533156353
 20
0.0
 30
0.0
 10
25.75427484151853
 20
0.0
 30
0.0
 10
27.18310279577356
 20
0.0
 30
0.0
 10
27.46669703448127
 20
0.0
 30
0.0
 10
28.01971093903967
 20
0.0
 30
0.0
 10
28.29044140396913
 20
0.0
 30
0.0
 10
29.08552325581707
 20
0.0
 30
0.0
 10
29.59287389072268
 20
0.0
 30
0.0
 10
30.31879972775377
 20
0.0
 30
0.0
 10
30.55594285327783
 20
0.0
 30
0.0
 10
31.01119248666479
 20
0.0
 30
0.0
 10
31.22958764145415
 20
0.0
 30
0.0
 10
31.85765089061103
 20
0.0
 30
0.0
 10
32.24037005718598
 20
0.0
 30
0.0
 10
32.93262608032578
 20
0.0
 30
0.0
 10
33.24272551975258
 20
0.0
 30
0.0
 10
33.76749732214799
 20
0.0
 30
0.0
 10
33.98520758462364
 20
0.0
 30
0.0
 10
34.15703103569269
 20
0.0
 30
0.0
  0
LINE
  5
231
330
20E
100
AcDbEntity
  8
0
  6
Continuous
 62
     7
370
    25
100
AcDbLine
 10
-39.0169986934
 20
0.0
 30
0.0
 11
-44.9276501722
 21
0.0
 31
0.0
  0
LINE
  5
232
330
20E
100
AcDbEntity
  8
0
  6
Continuous
 62
     7
370
    25
100
AcDbLine
 10
44.9276501722
 20
0.0
 30
0.0
 11
39.0169986934
 21
0.0
 31
0.0
  0
LINE
  5
233
330
20E
100
AcDbEntity
  8
0
  6
Continuous
 62
     7
370
    25
100
AcDbLine
 10
-26.2512997443
 20
2.2928932188
 30
0.0
 11
26.2512997443
 21
2.2928932188
 31
0.0
  0
LINE
  5
234
330
20E
100
AcDbEntity
  8
0
  6
Continuous
 62
     7
370
    25
100
AcDbLine
 10
28.0856146024
 20
5.8284271247
 30
0.0
 11
-28.0856146024
 21
5.8284271247
 31
0.0
  0
LINE
  5
235
330
20E
100
AcDbEntity
  8
0
  6
Continuous
 62
     7
370
    25
100
AcDbLine
 10
-22.8617826882
 20
1.7573593129
 30
0.0
 11
22.8617826882
 21
1.7573593129
 31
0.0
  0
LINE
  5
236
330
20E
100
AcDbEntity
  8
0
  6
Continuous
 62
     7
370
    25
100
AcDbLine
 10
23.3754010631
 20
0.0
 30
0.0
 11
-23.3754010631
 21
0.0
 31
0.0
  0
ARC
  5
237
330
20E
100
AcDbEntity
  8
0
  6
Continuous
 62
     7
370
    25
100
AcDbCircle
 10
0.0
 20
-5.878125
 30
0.0
 40
39.45730021882843
100
AcDbArc
 50
154.343953542
 51
171.4325076308
  0
ARC
  5
238
330
20E
100
AcDbEntity
  8
0
  6
Continuous
 62
     7
370
    25
100
AcDbCircle
 10
0.0
 20
-5.878125
 30
0.0
 40
39.45730021882812
100
AcDbArc
 50
28.999273154
 51
151.000726846
  0
ARC
  5
239
330
20E
100
AcDbEntity
  8
0
  6
Continuous
 62
     7
370
    25
100
AcDbCircle
 10
0.0
 20
-5.878125
 30
0.0
 40
39.45730021882828
100
AcDbArc
 50
8.5674923692
 51
25.656046458
  0
ARC
  5
23A
330
20E
100
AcDbEntity
  8
0
  6
Continuous
 62
     7
370
    25
100
AcDbCircle
 10
0.0
 20
-5.878125
 30
0.0
 40
34.65912755233316
100
AcDbArc
 50
9.7644573006
 51
170.2355426994
  0
ARC
  5
23B
330
20E
100
AcDbEntity
  8
0
  6
Continuous
 62
     7
370
    25
100
AcDbCircle
 10
0.0
 20
-5.878125
 30
0.0
 40
45.37812499999998
100
AcDbArc
 50
7.4486481692
 51
172.5513518308
  0
ARC
  5
23C
330
20E
100
AcDbEntity
  8
0
  6
Continuous
 62
     7
370
    25
100
AcDbCircle
 10
0.0
 20
-5.878125
 30
0.0
 40
45.87812500000001
100
AcDbArc
 50
8.0799663358
 51
171.9200336642
  0
ARC
  5
23D
330
20E
100
AcDbEntity
  8
0
  6
Continuous
 62
     7
370
    25
100
AcDbCircle
 10
44.9276501722
 20
0.5
 30
0.0
 40
0.5000000000142453
100
AcDbArc
 50
270.0000000001
 51
277.7643072523
  0
ARC
  5
23E
330
20E
100
AcDbEntity
  8
0
  6
Continuous
 62
     7
370
    25
100
AcDbCircle
 10
-44.9276501723
 20
0.5
 30
0.0
 40
0.4999999999858205
100
AcDbArc
 50
262.2356927475
 51
270.0000000002
  0
ARC
  5
23F
330
20E
100
AcDbEntity
  8
0
  6
Continuous
 62
     7
370
    25
100
AcDbCircle
 10
0.0
 20
-5.878125
 30
0.0
 40
24.10314768603231
100
AcDbArc
 50
14.1152855979
 51
18.4685277861
  0
ARC
  5
240
330
20E
100
AcDbEntity
  8
0
  6
Continuous
 62
     7
370
    25
100
AcDbCircle
 10
0.0
 20
-5.878125
 30
0.0
 40
30.42770300638082
100
AcDbArc
 50
22.6271873341
 51
157.3728126659
  0
ARC
  5
241
330
20E
100
AcDbEntity
  8
0
  6
Continuous
 62
     7
370
    25
100
AcDbCircle
 10
0.0
 20
-5.878125
 30
0.0
 40
24.10314768602805
100
AcDbArc
 50
161.5314722139
 51
165.8847144021
  0
VIEWPORT
  5
37C
330
20E
100
AcDbEntity
  8
0
100
AcDbViewport
 10
0.0
 20
0.0
 30
0.0
 40
205.6
 41
156.0
 68
     1
 69
     1
 12
0.0
 22
-20.0
 13
0.0
 23
0.0
 14
10.0
 24
10.0
 15
10.0
 25
10.0
 16
0.0
 26
0.0
 36
1.0
 17
0.0
 27
0.0
 37
0.0
 42
50.0
 43
0.0
 44
0.0
 45
70.3156390604
 50
0.0
 51
0.0
 72
   100
 90
   557152
  1

281
     0
 71
     1
 74
     0
110
0.0
120
0.0
130
0.0
111
1.0
121
0.0
131
0.0
112
0.0
122
1.0
132
0.0
 79
     0
146
0.0
  0
ENDBLK
  5
211
330
20E
100
AcDbEntity
  8
0
100
AcDbBlockEnd
  0
BLOCK
  5
244
330
242
100
AcDbEntity
  8
0
100
AcDbBlockBegin
  2
*Paper_Space4
 70
     0
 10
0.0
 20
0.0
 30
0.0
  3
*Paper_Space4
  1

  0
SPLINE
  5
246
330
242
100
AcDbEntity
  8
0
  6
Continuous
 62
     7
370
    25
100
AcDbSpline
210
0.0
220
0.0
230
1.0
 70
     8
 71
     3
 72
    23
 73
    19
 74
     0
 42
0.000000001
 43
0.00000001
 40
0.0
 40
0.0
 40
0.0
 40
0.0
 40
0.0283404385899269
 40
0.0970669292809603
 40
0.1658443311762758
 40
0.2346849733871731
 40
0.3035972157475997
 40
0.372585355806244
 40
0.4416499064875122
 40
0.51078815166764
 40
0.5799948658563958
 40
0.6492630866264334
 40
0.7185848484187595
 40
0.7879518154109223
 40
0.8573557812069674
 40
0.9267890284640274
 40
0.9926176724330661
 40
1.0
 40
1.0
 40
1.0
 40
1.0
 10
-26.91180412387462
 20
32.36236848630102
 30
0.0
 10
-27.0185069148926
 20
32.27584957753677
 30
0.0
 10
-27.38396746473408
 20
31.97951948469656
 30
0.0
 10
-27.97149817574742
 20
31.41876239357237
 30
0.0
 10
-28.67400412563892
 20
30.68238421542448
 30
0.0
 10
-29.33753580056231
 20
29.89269484905472
 30
0.0
 10
-29.96387154370042
 20
29.05472841232207
 30
0.0
 10
-30.55139498111989
 20
28.16848168533673
 30
0.0
 10
-31.09944359634573
 20
27.23541377060948
 30
0.0
 10
-31.60715305175504
 20
26.25670488972368
 30
0.0
 10
-32.07377930019043
 20
25.23372237680249
 30
0.0
 10
-32.49862059033732
 20
24.16788896291727
 30
0.0
 10
-32.88105291153312
 20
23.06071426654361
 30
0.0
 10
-33.22050159906745
 20
21.91376059368538
 30
0.0
 10
-33.51654276349972
 20
20.72870260532506
 30
0.0
 10
-33.764149744329
 20
19.5283480865745
 30
0.0
 10
-33.9076414153436
 20
18.66916371435537
 30
0.0
 10
-33.97257141576286
 20
18.22182875845106
 30
0.0
 10
-33.97911872038073
 20
18.17672113172051
 30
0.0
  0
SPLINE
  5
248
330
242
100
AcDbEntity
  8
0
  6
Continuous
 62
     7
370
    25
100
AcDbSpline
210
0.0
220
0.0
230
1.0
 70
     8
 71
     3
 72
    65
 73
    61
 74
     0
 42
0.000000001
 43
0.00000001
 40
0.0
 40
0.0
 40
0.0
 40
0.0
 40
0.0172082456154255
 40
0.0347056929812357
 40
0.0522013969499276
 40
0.0696953391132646
 40
0.0871875417794769
 40
0.1046780592600725
 40
0.1221669707995836
 40
0.1396543748677163
 40
0.1571403845974735
 40
0.1746251241763076
 40
0.1921087260221874
 40
0.2095913286004161
 40
0.2270730747591025
 40
0.2445541104803374
 40
0.2620345839607746
 40
0.2795146449489968
 40
0.2969944442781222
 40
0.3144741335409151
 40
0.3319538648610099
 40
0.34943374316734
 40
0.3669139179591293
 40
0.3843945420388452
 40
0.4018757680644454
 40
0.4193577482344123
 40
0.4368406338344819
 40
0.4543245745928543
 40
0.4718097177824693
 40
0.4892962069976745
 40
0.5067841805188001
 40
0.5242737691614169
 40
0.541765093487503
 40
0.5592582602332019
 40
0.5767533577831082
 40
0.5942504504949259
 40
0.6117495716530786
 40
0.6292507148086354
 40
0.6467538232514533
 40
0.6642587773668539
 40
0.6817653796658262
 40
0.6992733373617788
 40
0.7167822425212623
 40
0.7342914904276924
 40
0.7518001622977881
 40
0.7693073026610489
 40
0.7868117435685268
 40
0.8043120897026356
 40
0.8218067138613573
 40
0.8392937683600105
 40
0.8567712187576703
 40
0.8742369064396489
 40
0.8916886454779819
 40
0.9091243563144252
 40
0.9265422338213549
 40
0.9439409403170929
 40
0.9613198059979783
 40
0.978679011692984
 40
0.9960197241528043
 40
1.0
 40
1.0
 40
1.0
 40
1.0
 10
31.94733767335282
 20
-18.39952978547357
 30
0.0
 10
31.89102857463952
 20
-17.91571168051471
 30
0.0
 10
31.77746404658313
 20
-16.93994442423999
 30
0.0
 10
31.55096789498163
 20
-15.45117248507836
 30
0.0
 10
31.28280653189025
 20
-13.94134338217612
 30
0.0
 10
30.9704302165094
 20
-12.41907647875165
 30
0.0
 10
30.61541781578062
 20
-10.88690500263534
 30
0.0
 10
30.21797487179511
 20
-9.346786609996983
 30
0.0
 10
29.77874499130496
 20
-7.800846542773025
 30
0.0
 10
29.29832374950084
 20
-6.251175397346302
 30
0.0
 10
28.7773880384125
 20
-4.699880064239725
 30
0.0
 10
28.21666044486676
 20
-3.149066750377977
 30
0.0
 10
27.61691773125992
 20
-1.600842123990698
 30
0.0
 10
26.97898740014285
 20
-0.0573095471159395
 30
0.0
 10
26.30374734777672
 20
1.479433417584587
 30
0.0
 10
25.5921245851965
 20
3.007297868970282
 30
0.0
 10
24.8450941043526
 20
4.524206345005867
 30
0.0
 10
24.06367760190374
 20
6.028095624962246
 30
0.0
 10
23.24894213981164
 20
7.516919515530827
 30
0.0
 10
22.40199872449928
 20
8.988651620862349
 30
0.0
 10
21.52400160878358
 20
10.44128676963251
 30
0.0
 10
20.61614610796255
 20
11.87284504125834
 30
0.0
 10
19.67966690153274
 20
13.28137455824122
 30
0.0
 10
18.71583541089666
 20
14.66495535007054
 30
0.0
 10
17.72595877342325
 20
16.02170068762792
 30
0.0
 10
16.71137808584371
 20
17.34975950376431
 30
0.0
 10
15.67346654247702
 20
18.64731883503011
 30
0.0
 10
14.61362753031321
 20
19.91260618985297
 30
0.0
 10
13.53329268792361
 20
21.14389183676981
 30
0.0
 10
12.43391993619932
 20
22.339491006493
 30
0.0
 10
11.31699149014199
 20
23.49776600191108
 30
0.0
 10
10.18401186239163
 20
24.61712821061605
 30
0.0
 10
9.03650587089742
 20
25.69604001531079
 30
0.0
 10
7.87601666512492
 20
26.73301659859893
 30
0.0
 10
6.704103787441424
 20
27.72662764033992
 30
0.0
 10
5.522341288771329
 20
28.67549890816186
 30
0.0
 10
4.332315920158518
 20
29.5783137450853
 30
0.0
 10
3.135625424301109
 20
30.43381446280499
 30
0.0
 10
1.933876953094606
 20
31.24080365529589
 30
0.0
 10
0.7286856381946691
 20
31.99814545536353
 30
0.0
 10
-0.4783266592090127
 20
32.70476676679803
 30
0.0
 10
-1.685532396902343
 20
33.35965851696476
 30
0.0
 10
-2.891297815007935
 20
33.96187630511874
 30
0.0
 10
-4.093980057822374
 20
34.51054061964199
 30
0.0
 10
-5.291931090849578
 20
35.00484118056598
 30
0.0
 10
-6.483499341133855
 20
35.44403978992805
 30
0.0
 10
-7.667033397849353
 20
35.8274738105441
 30
0.0
 10
-8.840879069300179
 20
36.15455773913438
 30
0.0
 10
-10.00338047946195
 20
36.4247870572428
 30
0.0
 10
-11.152881748602
 20
36.63774228835128
 30
0.0
 10
-12.28773035668582
 20
36.79309464939726
 30
0.0
 10
-13.40627966047959
 20
36.89060724695215
 30
0.0
 10
-14.50690145857346
 20
36.93015277738023
 30
0.0
 10
-15.58796899480052
 20
36.91166720799905
 30
0.0
 10
-16.64795811997741
 20
36.8353364602787
 30
0.0
 10
-17.68511486705181
 20
36.70090578585496
 30
0.0
 10
-18.69874235249973
 20
36.51024572732368
 30
0.0
 10
-19.68445354597257
 20
36.25777024278664
 30
0.0
 10
-20.40375171674574
 20
36.04091440695056
 30
0.0
 10
-20.78517000293263
 20
35.89070617326229
 30
0.0
 10
-20.85637448793715
 20
35.86266478062183
 30
0.0
  0
SPLINE
  5
249
330
242
100
AcDbEntity
  8
0
  6
Continuous
 62
     7
370
    25
100
AcDbSpline
210
0.0
220
0.0
230
1.0
 70
     8
 71
     3
 72
    18
 73
    14
 74
     0
 42
0.000000001
 43
0.00000001
 40
0.0
 40
0.0
 40
0.0
 40
0.0
 40
0.0598032974096919
 40
0.1518540616756317
 40
0.2445896417105123
 40
0.3381285641242343
 40
0.4325866621119094
 40
0.528074053840673
 40
0.6246911103224846
 40
0.7225233873107006
 40
0.821635655077487
 40
0.9220654057728375
 40
1.0
 40
1.0
 40
1.0
 40
1.0
 10
-25.3966360692782
 20
22.92592257282329
 30
0.0
 10
-25.56214970246142
 20
22.72757968076965
 30
0.0
 10
-25.98242615125619
 20
22.22394233855925
 30
0.0
 10
-26.6044610064907
 20
21.37016252520061
 30
0.0
 10
-27.26946733561854
 20
20.37020254618038
 30
0.0
 10
-27.8869155757648
 20
19.32830136434708
 30
0.0
 10
-28.4583678517079
 20
18.24729810047385
 30
0.0
 10
-28.98229941905555
 20
17.12744826422759
 30
0.0
 10
-29.45780869712497
 20
15.96960367910512
 30
0.0
 10
-29.8844466226409
 20
14.77466773645878
 30
0.0
 10
-30.25899349553157
 20
13.54290531428205
 30
0.0
 10
-30.56269171217821
 20
12.37780772089259
 30
0.0
 10
-30.7156022501925
 20
11.61618339741639
 30
0.0
 10
-30.78241504698986
 20
11.2833989351998
 30
0.0
  0
SPLINE
  5
24C
330
242
100
AcDbEntity
  8
0
  6
Continuous
 62
     7
370
    25
100
AcDbSpline
210
0.0
220
0.0
230
1.0
 70
     8
 71
     3
 72
    27
 73
    23
 74
     0
 42
0.000000001
 43
0.00000001
 40
0.0
 40
0.0
 40
0.0
 40
0.0
 40
0.0151246761199429
 40
0.0709030818409214
 40
0.1265041482509201
 40
0.1818134007607531
 40
0.2367389363509916
 40
0.2912140322424922
 40
0.3451993572855504
 40
0.3986844584576064
 40
0.4516883123494198
 40
0.5042120637086406
 40
0.5564780007620554
 40
0.6092810225421805
 40
0.6622820485885856
 40
0.715368062743981
 40
0.7683873673550078
 40
0.8212374689465062
 40
0.873826397135035
 40
0.9259112580443211
 40
0.9783527831086544
 40
1.0
 40
1.0
 40
1.0
 40
1.0
 10
6.309150087621746
 20
-14.97929636267486
 30
0.0
 10
6.372908466284825
 20
-15.01744145463199
 30
0.0
 10
6.671801844532558
 20
-15.19626211534679
 30
0.0
 10
7.247948122406951
 20
-15.48618596409699
 30
0.0
 10
8.034026514108968
 20
-15.84599633161002
 30
0.0
 10
8.855786598659021
 20
-16.17003566074618
 30
0.0
 10
9.704175475421206
 20
-16.45963027246446
 30
0.0
 10
10.57559104453736
 20
-16.71283773560068
 30
0.0
 10
11.46519688113151
 20
-16.9289609157253
 30
0.0
 10
12.36881396140644
 20
-17.10729782125967
 30
0.0
 10
13.28223058058736
 20
-17.2474833550889
 30
0.0
 10
14.20252762884007
 20
-17.34917702808314
 30
0.0
 10
15.13094430743181
 20
-17.41398560891369
 30
0.0
 10
16.06738801247564
 20
-17.44220911218961
 30
0.0
 10
17.00978703645678
 20
-17.43340295831884
 30
0.0
 10
17.95038331911385
 20
-17.38728179780988
 30
0.0
 10
18.88283207620585
 20
-17.30395369605544
 30
0.0
 10
19.8007385783086
 20
-17.18365117316089
 30
0.0
 10
20.69795257700183
 20
-17.0276854035009
 30
0.0
 10
21.57126018242031
 20
-16.83418034391886
 30
0.0
 10
22.25909866295342
 20
-16.65701502750098
 30
0.0
 10
22.64565871257421
 20
-16.53204609255917
 30
0.0
 10
22.75860366230324
 20
-16.49553272267385
 30
0.0
  0
SPLINE
  5
24D
330
242
100
AcDbEntity
  8
0
  6
Continuous
 62
     7
370
    25
100
AcDbSpline
210
0.0
220
0.0
230
1.0
 70
     8
 71
     3
 72
    12
 73
     8
 74
     0
 42
0.000000001
 43
0.00000001
 40
0.0
 40
0.0
 40
0.0
 40
0.0
 40
0.1199278054344209
 40
0.3872108919340975
 40
0.6389600614861031
 40
0.891559075014447
 40
1.0
 40
1.0
 40
1.0
 40
1.0
 10
29.84116060562478
 20
-19.18968864171119
 30
0.0
 10
29.86819013470756
 20
-19.20706773462868
 30
0.0
 10
29.95546037222079
 20
-19.26317960997909
 30
0.0
 10
30.1283827617604
 20
-19.29831622676537
 30
0.0
 10
30.33406542048339
 20
-19.28874615327078
 30
0.0
 10
30.49529302310954
 20
-19.24407157608917
 30
0.0
 10
30.57752851816712
 20
-19.19124926859567
 30
0.0
 10
30.60222853663986
 20
-19.17538371115058
 30
0.0
  0
SPLINE
  5
250
330
242
100
AcDbEntity
  8
0
  6
Continuous
 62
     7
370
    25
100
AcDbSpline
210
0.0
220
0.0
230
1.0
 70
     8
 71
     3
 72
    17
 73
    13
 74
     0
 42
0.000000001
 43
0.00000001
 40
0.0
 40
0.0
 40
0.0
 40
0.0
 40
0.0147815099572517
 40
0.1265801114409329
 40
0.237897114485472
 40
0.3525789719596551
 40
0.4679794602612637
 40
0.5836559273379323
 40
0.7004158803218858
 40
0.8144489166939698
 40
0.9286083725789891
 40
1.0
 40
1.0
 40
1.0
 40
1.0
 10
22.76468289974943
 20
-16.50081358193142
 30
0.0
 10
22.77683484679561
 20
-16.49646070226224
 30
0.0
 10
22.88089693624235
 20
-16.45918521449351
 30
0.0
 10
23.1105171098485
 20
-16.40868595492953
 30
0.0
 10
23.44555937117905
 20
-16.35612854221887
 30
0.0
 10
23.80099259416435
 20
-16.33448450462609
 30
0.0
 10
24.16246120330364
 20
-16.34196479448872
 30
0.0
 10
24.51787361435271
 20
-16.38094822936888
 30
0.0
 10
24.85482825979397
 20
-16.44759842630985
 30
0.0
 10
25.15830227960654
 20
-16.53935203693734
 30
0.0
 10
25.39741698355739
 20
-16.63583602546852
 30
0.0
 10
25.51043684802296
 20
-16.70159707986927
 30
0.0
 10
25.55392175746857
 20
-16.72689894613133
 30
0.0
  0
SPLINE
  5
252
330
242
100
AcDbEntity
  8
0
  6
Continuous
 62
     7
370
    25
100
AcDbSpline
210
0.0
220
0.0
230
1.0
 70
     8
 71
     3
 72
    21
 73
    17
 74
     0
 42
0.000000001
 43
0.00000001
 40
0.0
 40
0.0
 40
0.0
 40
0.0
 40
0.0154839311713284
 40
0.0900936714283546
 40
0.1641939803802255
 40
0.2380463714727273
 40
0.3116757619628576
 40
0.3854881521353344
 40
0.4608939902876271
 40
0.5377251940804042
 40
0.6160104898778724
 40
0.695661319959392
 40
0.7765083525969662
 40
0.8583375767107639
 40
0.9409206942157734
 40
1.0
 40
1.0
 40
1.0
 40
1.0
 10
-30.8593671010971
 20
10.6241796320804
 30
0.0
 10
-30.86421300259955
 20
10.5840762185366
 30
0.0
 10
-30.89240901128144
 20
10.35073342444945
 30
0.0
 10
-30.88168984614948
 20
9.921693673628871
 30
0.0
 10
-30.82386775885377
 20
9.34315733208246
 30
0.0
 10
-30.69777138769129
 20
8.772373753925581
 30
0.0
 10
-30.51157495507898
 20
8.21345887250232
 30
0.0
 10
-30.26571362578461
 20
7.665524426032838
 30
0.0
 10
-29.95976334351406
 20
7.126550891562583
 30
0.0
 10
-29.59232816501844
 20
6.596370181306231
 30
0.0
 10
-29.16409642872328
 20
6.077725663516595
 30
0.0
 10
-28.67580179127093
 20
5.573245134955346
 30
0.0
 10
-28.12960401800829
 20
5.085407123564308
 30
0.0
 10
-27.52600891142156
 20
4.618399494969586
 30
0.0
 10
-26.9385242048983
 20
4.213730028666459
 30
0.0
 10
-26.53375833291771
 20
3.977972366707379
 30
0.0
 10
-26.36495360568997
 20
3.87965131107065
 30
0.0
  0
SPLINE
  5
254
330
242
100
AcDbEntity
  8
0
  6
Continuous
 62
     7
370
    25
100
AcDbSpline
210
0.0
220
0.0
230
1.0
 70
     8
 71
     3
 72
    12
 73
     8
 74
     0
 42
0.000000001
 43
0.00000001
 40
0.0
 40
0.0
 40
0.0
 40
0.0
 40
0.1742229288154057
 40
0.409202864109298
 40
0.6332407638551296
 40
0.857642971655727
 40
1.0
 40
1.0
 40
1.0
 40
1.0
 10
-33.97360258048808
 20
18.17647151976228
 30
0.0
 10
-33.98051962178009
 20
18.12938618197619
 30
0.0
 10
-33.99676589388155
 20
18.01879537047609
 30
0.0
 10
-33.96870800907526
 20
17.84563589994691
 30
0.0
 10
-33.89302628129316
 20
17.67280644207905
 30
0.0
 10
-33.7878936783832
 20
17.53951965564766
 30
0.0
 10
-33.69778786956532
 20
17.49036122108024
 30
0.0
 10
-33.66281343970581
 20
17.47128045099074
 30
0.0
  0
LWPOLYLINE
  5
257
330
242
100
AcDbEntity
  8
0
  6
Continuous
 62
     7
370
    25
100
AcDbPolyline
 90
       73
 70
   128
 43
0.0
 10
29.5951235381
 20
-18.7175846798
 10
29.3788939207
 20
-17.154227074
 10
29.113754668
 20
-15.5735883585
 10
28.8001174555
 20
-13.9781227533
 10
28.4384692602
 20
-12.3703075001
 10
28.0293716048
 20
-10.7526390156
 10
27.5734596854
 20
-9.127629015
 10
27.0714413856
 20
-7.4978006131
 10
26.5240961774
 20
-5.8656844055
 10
25.9322739107
 20
-4.2338145405
 10
25.2968934938
 20
-2.6047247836
 10
24.6189414669
 20
-0.9809445839
 10
23.89947047
 20
0.6350048537
 10
23.1395976087
 20
2.2406144828
 10
22.3405027194
 20
3.8333913114
 10
21.5034265379
 20
5.4108622728
 10
20.6296687725
 20
6.9705780652
 10
19.7205860861
 20
8.5101169549
 10
18.7775899899
 20
10.0270885365
 10
17.8021446515
 20
11.519137444
 10
16.7957646217
 20
12.9839470087
 10
15.760012483
 20
14.4192428554
 10
14.6964964232
 20
15.8227964344
 10
13.6068677382
 20
17.1924284812
 10
12.4928182689
 20
18.5260124008
 10
11.3560777733
 20
19.821477569
 10
10.1984112414
 20
21.0768125478
 10
9.0216161547
 20
22.2900682083
 10
7.8275196948
 20
23.4593607573
 10
6.6179759071
 20
24.582874662
 10
5.3948628214
 20
25.658865469
 10
4.1600795365
 20
26.6856625129
 10
2.9155432711
 20
27.6616715103
 10
1.663186387
 20
28.5853770352
 10
0.4049533891
 20
29.4553448719
 10
-0.857202094
 20
30.270224242
 10
-2.1213203436
 20
31.0287499018
 10
-3.3854385931
 20
31.7297441062
 10
-4.6475940763
 20
32.3721184384
 10
-5.9058270741
 20
32.9548754989
 10
-7.1581839582
 20
33.4771104546
 10
-8.4027202236
 20
33.9380124438
 10
-9.6375035085
 20
34.3368658348
 10
-10.8606165942
 20
34.6730513375
 10
-12.0701603819
 20
34.9460469646
 10
-13.2642568418
 20
35.1554288422
 10
-14.4410519285
 20
35.3008718682
 10
-15.5987184604
 20
35.3821502165
 10
-16.735458956
 20
35.3991376882
 10
-17.8495084254
 20
35.3518079072
 10
-18.9391371103
 20
35.2402343614
 10
-20.0026531702
 20
35.0645902884
 10
-21.0384053089
 20
34.8251484066
 10
-22.0447853386
 20
34.5222804916
 10
-23.020230677
 20
34.1564567994
 10
-23.9632267732
 20
33.7282453357
 10
-24.8723094596
 20
33.2383109742
 10
-25.746067225
 20
32.6874144244
 10
-26.5831434065
 20
32.0764110503
 10
-27.3822382958
 20
31.4062495425
 10
-28.1421111572
 20
30.6779704446
 10
-28.8615821541
 20
29.8927045384
 10
-29.539534181
 20
29.0516710877
 10
-30.1749145978
 20
28.1561759451
 10
-30.7667368645
 20
27.2076095247
 10
-31.3140820727
 20
26.2074446431
 10
-31.8161003725
 20
25.1572342325
 10
-32.2720122919
 20
24.0586089297
 10
-32.6811099473
 20
22.9132745442
 10
-33.0427581426
 20
21.7230094095
 10
-33.3563953551
 20
20.489661622
 10
-33.6215346078
 20
19.2151461716
 10
-33.8377642252
 20
17.9014419681
  0
SPLINE
  5
25A
330
242
100
AcDbEntity
  8
0
  6
Continuous
 62
     7
370
    25
100
AcDbSpline
210
0.0
220
0.0
230
1.0
 70
     8
 71
     3
 72
    10
 73
     6
 74
     0
 42
0.000000001
 43
0.00000001
 40
0.0
 40
0.0
 40
0.0
 40
0.0
 40
0.5
 40
0.5
 40
1.0
 40
1.0
 40
1.0
 40
1.0
 10
30.70447615512915
 20
-18.89247813741675
 30
0.0
 10
30.61002775656828
 20
-18.94700203733209
 30
0.0
 10
30.51225776137072
 20
-18.95096783394868
 30
0.0
 10
30.36324013620255
 20
-18.86146662765165
 30
0.0
 10
30.31245221302823
 20
-18.76934006637451
 30
0.0
 10
30.29814535520796
 20
-18.65334347191708
 30
0.0
  0
SPLINE
  5
25C
330
242
100
AcDbEntity
  8
0
  6
Continuous
 62
     7
370
    25
100
AcDbSpline
210
0.0
220
0.0
230
1.0
 70
     8
 71
     3
 72
    11
 73
     7
 74
     0
 42
0.000000001
 43
0.00000001
 40
0.0
 40
0.0
 40
0.0
 40
0.0
 40
0.176894430580597
 40
0.6027285904280238
 40
0.9926019414596985
 40
1.0
 40
1.0
 40
1.0
 40
1.0
 10
31.94022706055073
 20
-18.40248482187372
 30
0.0
 10
31.94310042910281
 20
-18.4014453717784
 30
0.0
 10
31.95289079599842
 20
-18.39790367581479
 30
0.0
 10
31.89004933076496
 20
-18.35425479946013
 30
0.0
 10
31.81171648135971
 20
-18.30687150893737
 30
0.0
 10
31.76598789278336
 20
-18.28066016582286
 30
0.0
 10
31.76513632690897
 20
-18.28017205354972
 30
0.0
  0
SPLINE
  5
25D
330
242
100
AcDbEntity
  8
0
  6
Continuous
 62
     7
370
    25
100
AcDbSpline
210
0.0
220
0.0
230
1.0
 70
     8
 71
     3
 72
    26
 73
    22
 74
     0
 42
0.000000001
 43
0.00000001
 40
0.0
 40
0.0
 40
0.0
 40
0.0
 40
0.1249999999999996
 40
0.1249999999999996
 40
0.2499999999999992
 40
0.2499999999999992
 40
0.3124999999999989
 40
0.3124999999999989
 40
0.3749999999999988
 40
0.3749999999999988
 40
0.4999999999999989
 40
0.4999999999999989
 40
0.562499999999999
 40
0.562499999999999
 40
0.624999999999999
 40
0.624999999999999
 40
0.7499999999999993
 40
0.7499999999999993
 40
0.8749999999999998
 40
0.8749999999999998
 40
1.0
 40
1.0
 40
1.0
 40
1.0
 10
6.081778345576499
 20
-14.53231271607268
 30
0.0
 10
6.624570546864956
 20
-14.83334357821834
 30
0.0
 10
7.201672378558021
 20
-15.10772183800092
 30
0.0
 10
8.422855603283734
 20
-15.60394740164556
 30
0.0
 10
9.066926200043952
 20
-15.82580590242356
 30
0.0
 10
10.08558954297569
 20
-16.11702547767339
 30
0.0
 10
10.43424089094839
 20
-16.20710456099625
 30
0.0
 10
11.13674787937313
 20
-16.36990837436551
 30
0.0
 10
11.49213156668455
 20
-16.44310225654211
 30
0.0
 10
12.57051282231734
 20
-16.63830602329799
 30
0.0
 10
13.30566366970719
 20
-16.73609058690206
 30
0.0
 10
14.4334531001637
 20
-16.83254916560859
 30
0.0
 10
14.81534279532885
 20
-16.85634578338093
 30
0.0
 10
15.57843651591717
 20
-16.88604583905253
 30
0.0
 10
15.9588644287415
 20
-16.89201761649841
 30
0.0
 10
17.09686464980004
 20
-16.88383470020974
 30
0.0
 10
17.85117428951422
 20
-16.84374642914554
 30
0.0
 10
19.35095907361944
 20
-16.69314643967467
 30
0.0
 10
20.09992612743645
 20
-16.58157124434504
 30
0.0
 10
21.55075839443455
 20
-16.29014371110168
 30
0.0
 10
22.25628375599427
 20
-16.10997057531945
 30
0.0
 10
22.93212289032626
 20
-15.89736005773109
 30
0.0
  0
SPLINE
  5
25F
330
242
100
AcDbEntity
  8
0
  6
Continuous
 62
     7
370
    25
100
AcDbSpline
210
0.0
220
0.0
230
1.0
 70
     8
 71
     3
 72
    12
 73
     8
 74
     0
 42
0.000000001
 43
0.00000001
 40
0.0
 40
0.0
 40
0.0
 40
0.0
 40
0.25
 40
0.25
 40
0.5
 40
0.5
 40
1.0
 40
1.0
 40
1.0
 40
1.0
 10
10.05922241438417
 20
-14.2204612551072
 30
0.0
 10
9.674433621307935
 20
-14.25923219204492
 30
0.0
 10
9.295115795651212
 20
-14.27039145892938
 30
0.0
 10
8.547478030843866
 20
-14.23849865831555
 30
0.0
 10
8.177678825913535
 20
-14.19492662989395
 30
0.0
 10
7.107153635017783
 20
-13.9877042971981
 30
0.0
 10
6.438652314129552
 20
-13.74861932643896
 30
0.0
 10
5.811883862075897
 20
-13.41986888044504
 30
0.0
  0
SPLINE
  5
260
330
242
100
AcDbEntity
  8
0
  6
Continuous
 62
     7
370
    25
100
AcDbSpline
210
0.0
220
0.0
230
1.0
 70
     8
 71
     3
 72
    18
 73
    14
 74
     0
 42
0.000000001
 43
0.00000001
 40
0.0
 40
0.0
 40
0.0
 40
0.0
 40
0.2500000000000002
 40
0.2500000000000002
 40
0.5000000000000004
 40
0.5000000000000004
 40
0.6250000000000003
 40
0.6250000000000003
 40
0.7500000000000002
 40
0.7500000000000002
 40
0.8750000000000001
 40
0.8750000000000001
 40
1.0
 40
1.0
 40
1.0
 40
1.0
 10
10.05922241438417
 20
-14.2204612551072
 30
0.0
 10
10.36200848538411
 20
-14.18995283106889
 30
0.0
 10
10.66068493888595
 20
-14.13144230037949
 30
0.0
 10
11.23718048903492
 20
-13.92988227192599
 30
0.0
 10
11.50877070772628
 20
-13.78915243596243
 30
0.0
 10
11.85514685879951
 20
-13.48932975440529
 30
0.0
 10
11.95726298325921
 20
-13.37687058751393
 30
0.0
 10
12.12766592046582
 20
-13.1221776655441
 30
0.0
 10
12.19424284174077
 20
-12.98113339239024
 30
0.0
 10
12.27984383958145
 20
-12.68293457762579
 30
0.0
 10
12.29936030321446
 20
-12.52152303774189
 30
0.0
 10
12.29018776815606
 20
-12.20186152147916
 30
0.0
 10
12.26283083781569
 20
-12.04190040085341
 30
0.0
 10
12.21548808792315
 20
-11.88184958431393
 30
0.0
  0
LWPOLYLINE
  5
261
330
242
100
AcDbEntity
  8
0
  6
Continuous
 62
     7
370
    25
100
AcDbPolyline
 90
       51
 70
   128
 43
0.0
 10
-29.4217530968
 20
12.1548181168
 10
-28.9939298678
 20
13.031162597
 10
-28.5206830214
 20
13.8567224419
 10
-28.0030667871
 20
14.6296585907
 10
-27.4422342343
 20
15.3482492102
 10
-26.8394347032
 20
16.0108935298
 10
-26.1960110218
 20
16.6161154081
 10
-25.5133965147
 20
17.1625666209
 10
-24.7931118102
 20
17.6490298644
 10
-24.0367614523
 20
18.0744214676
 10
-23.2460303273
 20
18.4377938056
 10
-22.4226799094
 20
18.738337411
 10
-21.5685443377
 20
18.9753827769
 10
-20.6855263295
 20
19.1484018487
 10
-19.7755929425
 20
19.2570091998
 10
-18.8407711924
 20
19.3009628908
 10
-17.8831435374
 20
19.2801650081
 10
-16.9048432396
 20
19.1946618823
 10
-15.9080496124
 20
19.0446439845
 10
-14.8949831659
 20
18.8304455026
 10
-13.8679006604
 20
18.5525435964
 10
-12.8290900792
 20
18.2115573349
 10
-11.7808655317
 20
17.8082463171
 10
-10.7255620982
 20
17.3435089799
 10
-9.6655306284
 20
16.8183805968
 10
-8.6031325044
 20
16.2340309715
 10
-7.5407343805
 20
15.5917618322
 10
-6.4807029107
 20
14.8930039314
 10
-5.4253994772
 20
14.1393138592
 10
-4.3771749296
 20
13.3323705754
 10
-3.3383643485
 20
12.4739716695
 10
-2.311281843
 20
11.5660293563
 10
-1.2982153965
 20
10.610566216
 10
-0.3014217692
 20
9.6097106888
 10
0.6768785286
 20
8.5656923334
 10
1.6345061835
 20
7.4808368601
 10
2.5693279336
 20
6.3575609504
 10
3.4792613206
 20
5.1983668731
 10
4.3622793288
 20
4.00583691
 10
5.2164149006
 20
2.782627604
 10
6.0397653184
 20
1.5314638407
 10
6.8304964435
 20
0.2551327786
 10
7.5868468013
 20
-1.0435223598
 10
8.3071315058
 20
-2.3616086217
 10
8.9897460129
 20
-3.6961897684
 10
9.6331696943
 20
-5.0442928165
 10
10.2359692254
 20
-6.4029146605
 10
10.7968017782
 20
-7.7690287626
 10
11.3144180125
 20
-9.1395918947
 10
11.787664859
 20
-10.5115509181
 10
12.2154880879
 20
-11.8818495843
  0
SPLINE
  5
262
330
242
100
AcDbEntity
  8
0
  6
Continuous
 62
     7
370
    25
100
AcDbSpline
210
0.0
220
0.0
230
1.0
 70
     8
 71
     3
 72
    18
 73
    14
 74
     0
 42
0.000000001
 43
0.00000001
 40
0.0
 40
0.0
 40
0.0
 40
0.0
 40
0.1250000000000002
 40
0.1250000000000002
 40
0.2500000000000005
 40
0.2500000000000005
 40
0.3750000000000008
 40
0.3750000000000008
 40
0.500000000000001
 40
0.500000000000001
 40
0.7500000000000004
 40
0.7500000000000004
 40
1.0
 40
1.0
 40
1.0
 40
1.0
 10
-29.4217530967959
 20
12.15481811676621
 30
0.0
 10
-29.4691457865131
 20
12.04931690435724
 30
0.0
 10
-29.51195102688966
 20
11.92875523087579
 30
0.0
 10
-29.58590286791943
 20
11.65576512762858
 30
0.0
 10
-29.61687258735311
 20
11.50247779244403
 30
0.0
 10
-29.66130565887496
 20
11.181597725591
 30
0.0
 10
-29.67544090476553
 20
11.00885850106133
 30
0.0
 10
-29.68519405502167
 20
10.66282851734248
 30
0.0
 10
-29.68121909606125
 20
10.48908242450091
 30
0.0
 10
-29.64393776223907
 20
9.966216355191747
 30
0.0
 10
-29.58716694548541
 20
9.636370070222538
 30
0.0
 10
-29.42494746918781
 20
9.009376447213128
 30
0.0
 10
-29.32123216814838
 20
8.718691668887095
 30
0.0
 10
-29.19848404766468
 20
8.442530290094561
 30
0.0
  0
SPLINE
  5
263
330
242
100
AcDbEntity
  8
0
  6
Continuous
 62
     7
370
    25
100
AcDbSpline
210
0.0
220
0.0
230
1.0
 70
     8
 71
     3
 72
    12
 73
     8
 74
     0
 42
0.000000001
 43
0.00000001
 40
0.0
 40
0.0
 40
0.0
 40
0.0
 40
0.5
 40
0.5
 40
0.75
 40
0.75
 40
1.0
 40
1.0
 40
1.0
 40
1.0
 10
-26.31798051648584
 20
5.128307016273443
 30
0.0
 10
-26.94474896853948
 20
5.523208021666413
 30
0.0
 10
-27.50468675757869
 20
5.993285854113679
 30
0.0
 10
-28.23466971938478
 20
6.825474753482426
 30
0.0
 10
-28.46024839282958
 20
7.125607058294348
 30
0.0
 10
-28.86354433624535
 20
7.758134144862761
 30
0.0
 10
-29.04249033463523
 20
8.091572257471203
 30
0.0
 10
-29.19848404766468
 20
8.442530290094563
 30
0.0
  0
SPLINE
  5
266
330
242
100
AcDbEntity
  8
0
  6
Continuous
 62
     7
370
    25
100
AcDbSpline
210
0.0
220
0.0
230
1.0
 70
     8
 71
     3
 72
    12
 73
     8
 74
     0
 42
0.000000001
 43
0.00000001
 40
0.0
 40
0.0
 40
0.0
 40
0.0
 40
0.4999999999999968
 40
0.4999999999999968
 40
0.7499999999999983
 40
0.7499999999999983
 40
1.0
 40
1.0
 40
1.0
 40
1.0
 10
22.93212289032625
 20
-15.89736005773109
 30
0.0
 10
23.32212340112989
 20
-15.78748175280637
 30
0.0
 10
23.77460223891674
 20
-15.76971959986876
 30
0.0
 10
24.42225223307901
 20
-15.87224694984729
 30
0.0
 10
24.6297059250774
 20
-15.92671165131724
 30
0.0
 10
25.019657431866
 20
-16.07323348126791
 30
0.0
 10
25.19636664553644
 20
-16.16303993566193
 30
0.0
 10
25.35202980747861
 20
-16.26809880786601
 30
0.0
  0
LWPOLYLINE
  5
267
330
242
100
AcDbEntity
  8
0
  6
Continuous
 62
     7
370
    25
100
AcDbPolyline
 90
       50
 70
   128
 43
0.0
 10
11.256970199
 20
-11.9444633525
 10
10.835113064
 20
-10.5947199529
 10
10.3676224532
 20
-9.2433704467
 10
9.8555827053
 20
-7.8935492721
 10
9.3001814902
 20
-6.5483873225
 10
8.7027070539
 20
-5.2110046842
 10
8.064545231
 20
-3.8845033995
 10
7.3871762298
 20
-2.5719602715
 10
6.6721711992
 20
-1.2764197275
 10
5.9211885844
 20
-0.0008867577
 10
5.1359702803
 20
1.2516800553
 10
4.3183375908
 20
2.4783753983
 10
3.4701870047
 20
3.6763539669
 10
2.5934857967
 20
4.8428370648
 10
1.6902674643
 20
5.9751190491
 10
0.7626270111
 20
7.0705736058
 10
-0.1872839125
 20
8.1266598418
 10
-1.157262
 20
9.1409281784
 10
-2.1450573993
 20
10.1110260327
 10
-3.1483789315
 20
11.0347032751
 10
-4.1648994047
 20
11.9098174477
 10
-5.1922610125
 20
12.734338734
 10
-6.2280808025
 20
13.5063546674
 10
-7.2699562036
 20
14.2240745665
 10
-8.3154705989
 20
14.885833689
 10
-9.3621989308
 20
15.4900970929
 10
-10.4077133261
 20
16.0354631968
 10
-11.4495887272
 20
16.5206670309
 10
-12.4854085171
 20
16.9445831708
 10
-13.5127701249
 20
17.3062283486
 10
-14.5292905982
 20
17.6047637326
 10
-15.5326121303
 20
17.8394968738
 10
-16.5204075297
 20
18.0098833117
 10
-17.4903856172
 20
18.1155278369
 10
-18.4402965408
 20
18.1561854084
 10
-19.367936994
 20
18.1317617215
 10
-20.2711553264
 20
18.0423134265
 10
-21.1478565344
 20
17.8880479976
 10
-21.9960071204
 20
17.6693232517
 10
-22.8136398099
 20
17.3866465179
 10
-23.5988581141
 20
17.0406734616
 10
-24.3498407288
 20
16.6322065627
 10
-25.0648457594
 20
16.1621932552
 10
-25.7422147607
 20
15.6317237291
 10
-26.3803765836
 20
15.0420284018
 10
-26.9778510199
 20
14.3944750642
 10
-27.533252235
 20
13.6905657082
 10
-28.0452919828
 20
12.9319330427
 10
-28.5127825936
 20
12.1203367066
 10
-28.9346397287
 20
11.2576591877
  0
LWPOLYLINE
  5
26B
330
242
100
AcDbEntity
  8
0
  6
Continuous
 62
     7
370
    25
100
AcDbPolyline
 90
       22
 70
   128
 43
0.0
 10
30.673480445
 20
1.5794278982
 10
30.8236845076
 20
1.6502887513
 10
31.0893242233
 20
1.7127019981
 10
31.3803727847
 20
1.7110930591
 10
31.6900082602
 20
1.6454996464
 10
32.0109730567
 20
1.5174592139
 10
32.3357440313
 20
1.329972921
 10
32.6567088278
 20
1.0874352874
 10
32.9663443033
 20
0.7955311897
 10
33.2573928646
 20
0.4611026126
 10
33.5230325803
 20
0.0919882783
 10
33.7570370805
 20
-0.3031600858
 10
33.9539214981
 20
-0.7150805372
 10
34.1090710292
 20
-1.1341180094
 10
34.2188491002
 20
-1.5504506194
 10
34.2806826063
 20
-1.9543198836
 10
34.2931222225
 20
-2.3362594488
 10
34.2558763746
 20
-2.6873169753
 10
34.1698180739
 20
-2.9992639722
 10
34.0369644539
 20
-3.2647886663
 10
33.8604294909
 20
-3.4776673838
 10
33.6732366429
 20
-3.6168652761
  0
SPLINE
  5
26D
330
242
100
AcDbEntity
  8
0
  6
Continuous
 62
     7
370
    25
100
AcDbSpline
210
0.0
220
0.0
230
1.0
 70
     8
 71
     3
 72
    18
 73
    14
 74
     0
 42
0.000000001
 43
0.00000001
 40
0.0
 40
0.0
 40
0.0
 40
0.0
 40
0.1250000000000002
 40
0.1250000000000002
 40
0.2500000000000003
 40
0.2500000000000003
 40
0.3750000000000005
 40
0.3750000000000005
 40
0.5000000000000007
 40
0.5000000000000007
 40
0.7500000000000003
 40
0.7500000000000003
 40
1.0
 40
1.0
 40
1.0
 40
1.0
 10
11.25697019902033
 20
-11.94446335253413
 30
0.0
 10
11.30434308817226
 20
-12.03821359983731
 30
0.0
 10
11.34112572718826
 20
-12.13708852548672
 30
0.0
 10
11.36881131825127
 20
-12.33616070275889
 30
0.0
 10
11.35627942985632
 20
-12.43546897191776
 30
0.0
 10
11.27744422170034
 20
-12.5949138964461
 30
0.0
 10
11.2137439317961
 20
-12.65607623136308
 30
0.0
 10
11.07009020150874
 20
-12.74571342468117
 30
0.0
 10
10.98989940928188
 20
-12.77556679156402
 30
0.0
 10
10.74538404111832
 20
-12.83838968693248
 30
0.0
 10
10.57311380865345
 20
-12.84706120781092
 30
0.0
 10
10.22889633461058
 20
-12.83600499981441
 30
0.0
 10
10.05672819905306
 20
-12.81521422439274
 30
0.0
 10
9.8851825264103
 20
-12.78555107542024
 30
0.0
  0
SPLINE
  5
270
330
242
100
AcDbEntity
  8
0
  6
Continuous
 62
     7
370
    25
100
AcDbSpline
210
0.0
220
0.0
230
1.0
 70
     8
 71
     3
 72
    18
 73
    14
 74
     0
 42
0.000000001
 43
0.00000001
 40
0.0
 40
0.0
 40
0.0
 40
0.0
 40
0.2499999999999994
 40
0.2499999999999994
 40
0.4999999999999989
 40
0.4999999999999989
 40
0.6249999999999991
 40
0.6249999999999991
 40
0.7499999999999994
 40
0.7499999999999994
 40
0.8749999999999997
 40
0.8749999999999997
 40
1.0
 40
1.0
 40
1.0
 40
1.0
 10
-28.39127918082026
 20
9.31097993027654
 30
0.0
 10
-28.5026992819696
 20
9.444638677493236
 30
0.0
 10
-28.60915882017478
 20
9.58464381917742
 30
0.0
 10
-28.8077628818368
 20
9.886688629437417
 30
0.0
 10
-28.90057459389467
 20
10.04864836803365
 30
0.0
 10
-29.01412507098945
 20
10.31779725673025
 30
0.0
 10
-29.04819433243881
 20
10.41364132811325
 30
0.0
 10
-29.09830261336149
 20
10.61429126898998
 30
0.0
 10
-29.11441564126635
 20
10.72224594714912
 30
0.0
 10
-29.11165746189941
 20
10.92576197727215
 30
0.0
 10
-29.09141526015618
 20
11.02103494582533
 30
0.0
 10
-29.02582329308664
 20
11.16595911103689
 30
0.0
 10
-28.98206199517475
 20
11.21856380678678
 30
0.0
 10
-28.9346397286841
 20
11.2576591876647
 30
0.0
  0
SPLINE
  5
271
330
242
100
AcDbEntity
  8
0
  6
Continuous
 62
     7
370
    25
100
AcDbSpline
210
0.0
220
0.0
230
1.0
 70
     8
 71
     3
 72
    12
 73
     8
 74
     0
 42
0.000000001
 43
0.00000001
 40
0.0
 40
0.0
 40
0.0
 40
0.0
 40
0.500000000000001
 40
0.500000000000001
 40
0.7500000000000004
 40
0.7500000000000004
 40
1.0
 40
1.0
 40
1.0
 40
1.0
 10
6.226097424448986
 20
-12.0259853903079
 30
0.0
 10
6.766478761063222
 20
-12.33794089577566
 30
0.0
 10
7.342077626175926
 20
-12.5649273955891
 30
0.0
 10
8.265080529720116
 20
-12.761599663366
 30
0.0
 10
8.584384529798857
 20
-12.8029177309832
 30
0.0
 10
9.228475706942616
 20
-12.83293783382689
 30
0.0
 10
9.554715345809202
 20
-12.82221409691656
 30
0.0
 10
9.885182526410308
 20
-12.78555107542024
 30
0.0
  0
SPLINE
  5
274
330
242
100
AcDbEntity
  8
0
  6
Continuous
 62
     7
370
    25
100
AcDbSpline
210
0.0
220
0.0
230
1.0
 70
     8
 71
     3
 72
    12
 73
     8
 74
     0
 42
0.000000001
 43
0.00000001
 40
0.0
 40
0.0
 40
0.0
 40
0.0
 40
0.2499999999999994
 40
0.2499999999999994
 40
0.4999999999999989
 40
0.4999999999999989
 40
1.0
 40
1.0
 40
1.0
 40
1.0
 10
-28.39127918082026
 20
9.31097993027654
 30
0.0
 10
-28.2577841311301
 20
9.00647721436127
 30
0.0
 10
-28.10393833609997
 20
8.718606055711124
 30
0.0
 10
-27.75586770079314
 20
8.175863335826568
 30
0.0
 10
-27.5604192612099
 20
7.920021145260855
 30
0.0
 10
-26.92855251162264
 20
7.21908626839028
 30
0.0
 10
-26.44414829072698
 20
6.834146011878338
 30
0.0
 10
-25.90376695411275
 20
6.522190506410579
 30
0.0
  0
LWPOLYLINE
  5
27A
330
242
100
AcDbEntity
  8
0
  6
Continuous
 62
     8
370
    25
100
AcDbPolyline
 90
       55
 70
   128
 43
0.0
 10
-22.4239844666
 20
34.9900853235
 10
-21.9107591431
 20
35.1731464793
 10
-20.8932902899
 20
35.4793515519
 10
-19.8461256905
 20
35.7214317301
 10
-18.7708912524
 20
35.8990111417
 10
-17.6692564667
 20
36.0118140634
 10
-16.5429318155
 20
36.0596653487
 10
-15.3936661165
 20
36.0424907001
 10
-14.2232438071
 20
35.9603167843
 10
-13.0334821744
 20
35.8132711908
 10
-11.826228533
 20
35.6015822337
 10
-10.6033573569
 20
35.3255785975
 10
-9.3667673693
 20
34.9856888265
 10
-8.118378594
 20
34.5824406595
 10
-6.8601293747
 20
34.1164602102
 10
-5.5939733652
 20
33.5884709956
 10
-4.3218764957
 20
32.999292812
 10
-3.0458139209
 20
32.3498404622
 10
-1.767766953
 20
31.6411223357
 10
-0.489719985
 20
30.8742388421
 10
0.7863425898
 20
30.0503807033
 10
2.0584394592
 20
29.1708271043
 10
3.3245954688
 20
28.2369437071
 10
4.5828446881
 20
27.2501805303
 10
5.8312334633
 20
26.2120696976
 10
7.067823451
 20
25.1242230591
 10
8.290694627
 20
23.9883296885
 10
9.4979482685
 20
22.8061532604
 10
10.6877099012
 20
21.5795293122
 10
11.8581322106
 20
20.3103623937
 10
13.0073979096
 20
19.0006231103
 10
14.1337225608
 20
17.6523450631
 10
15.2353573465
 20
16.2676216914
 10
16.3105917845
 20
14.8486030224
 10
17.357756384
 20
13.3974923327
 10
18.3752252371
 20
11.9165427274
 10
19.3614185443
 20
10.4080536418
 10
20.3148050664
 20
8.8743672711
 10
21.233904503
 20
7.3178649338
 10
22.1172897901
 20
5.7409633741
 10
22.9635893164
 20
4.1461110097
 10
23.7714890526
 20
2.5357841299
 10
24.539734592
 20
0.9124830511
 10
25.267133098
 20
-0.7212717655
 10
25.9525551562
 20
-2.3629436278
 10
26.594936528
 20
-4.0099835508
 10
27.1932798031
 20
-5.6598342145
 10
27.7466559481
 20
-7.3099339351
 10
28.254205749
 20
-8.9577206419
 10
28.7151411452
 20
-10.6006358556
 10
29.1287464533
 20
-12.2361286606
 10
29.4943794783
 20
-13.8616596662
 10
29.8114725102
 20
-15.4747049488
 10
30.0795332063
 20
-17.0727599715
 10
30.2981453552
 20
-18.6533434719
  0
LWPOLYLINE
  5
27B
330
242
100
AcDbEntity
  8
0
  6
Continuous
 62
     8
370
    25
100
AcDbPolyline
 90
       56
 70
   128
 43
0.0
 10
31.7651363269
 20
-18.2801720535
 10
31.5619306227
 20
-16.7144093494
 10
31.3097588594
 20
-15.1306797904
 10
31.0090079295
 20
-13.5314132
 10
30.6601392575
 20
-11.9190632394
 10
30.2636880922
 20
-10.2961036426
 10
29.8202626854
 20
-8.6650244217
 10
29.3305433588
 20
-7.0283280461
 10
28.79528146
 20
-5.3885256031
 10
28.21529821
 20
-3.7481329456
 10
27.5914834433
 20
-2.1096668322
 10
26.9247942422
 20
-0.4756410654
 10
26.216253469
 20
1.1514373646
 10
25.4669481964
 20
2.7690721267
 10
24.6780280396
 20
4.3747813785
 10
23.8507033925
 20
5.9661015743
 10
22.986243571
 20
7.5405912446
 10
22.0859748651
 20
9.0958347422
 10
21.1512785045
 20
10.629445948
 10
20.1835885391
 20
12.139071932
 10
19.1843896389
 20
13.6223965635
 10
18.1552148163
 20
15.0771440643
 10
17.097643074
 20
16.5010825005
 10
16.0132969824
 20
17.8920272066
 10
14.9038401904
 20
19.2478441377
 10
13.7709748724
 20
20.5664531431
 10
12.6164391174
 20
21.8458311584
 10
11.4420042621
 20
23.0840153085
 10
10.2494721731
 20
24.2791059202
 10
9.0406724826
 20
25.4292694357
 10
7.8174597813
 20
26.5327412266
 10
6.5817107727
 20
27.5878283007
 10
5.3353213942
 20
28.5929118997
 10
4.0802039082
 20
29.5464499825
 10
2.8182839678
 20
30.4469795916
 10
1.551497663
 20
31.293119097
 10
0.2817885499
 20
32.0835703164
 10
-0.9888953311
 20
32.8171205069
 10
-2.2586044442
 20
33.4926442253
 10
-3.525390749
 20
34.109105055
 10
-4.7873106893
 20
34.6655571964
 10
-6.0424281754
 20
35.1611469174
 10
-7.2888175539
 20
35.5951138638
 10
-8.5245665625
 20
35.9667922255
 10
-9.7477792638
 20
36.2756117581
 10
-10.9565789543
 20
36.5210986579
 10
-12.1491110433
 20
36.7028762887
 10
-13.3235458986
 20
36.8206657598
 10
-14.4780816535
 20
36.8742863536
 10
-15.6109469715
 20
36.8636558032
 10
-16.7204037636
 20
36.7887904184
 10
-17.8047498552
 20
36.6498050608
 10
-18.8623215975
 20
36.4469129676
 10
-19.8914964201
 20
36.1804254242
 10
-20.8906953203
 20
35.8507512867
 10
-20.9100295638
 20
35.8436394895
  0
LWPOLYLINE
  5
27D
330
242
100
AcDbEntity
  8
0
  6
Continuous
 62
     8
370
    25
100
AcDbPolyline
 90
       67
 70
   128
 43
0.0
 10
-29.5477606556
 20
15.7227114716
 10
-29.3644854822
 20
16.6553233655
 10
-29.0855839443
 20
17.818134611
 10
-28.7584646158
 20
18.938310481
 10
-28.3837124548
 20
20.0138478647
 10
-27.9619975975
 20
21.0428234744
 10
-27.4940741588
 20
22.0233972847
 10
-26.9807788846
 20
22.9538158228
 10
-26.423029655
 20
23.8324153041
 10
-25.8218238435
 20
24.6576246075
 10
-25.1782365327
 20
25.4279680845
 10
-24.4934185925
 20
26.1420681987
 10
-23.7685946218
 20
26.7986479884
 10
-23.0050607588
 20
27.3965333504
 10
-22.2041823631
 20
27.9346551396
 10
-21.3673915742
 20
28.4120510807
 10
-20.4961847504
 20
28.8278674891
 10
-19.5921197934
 20
29.1813607974
 10
-18.656813362
 20
29.4718988849
 10
-17.6919379814
 20
29.6989622083
 10
-16.6992190522
 20
29.8621447305
 10
-15.6804317653
 20
29.9611546467
 10
-14.6373979273
 20
29.9958149062
 10
-13.5719827026
 20
29.9660635293
 10
-12.4860912784
 20
29.8719537177
 10
-11.3816654576
 20
29.7136537595
 10
-10.2606801865
 20
29.4914467284
 10
-9.1251400233
 20
29.2057299776
 10
-7.9770755532
 20
28.8570144288
 10
-6.8185397576
 20
28.445923659
 10
-5.651604343
 20
27.9731927851
 10
-4.478356036
 20
27.4396671498
 10
-3.300892852
 20
26.8463008093
 10
-2.1213203436
 20
26.1941548279
 10
-0.9417478351
 20
25.4843953801
 10
0.2357153489
 20
24.7182916654
 10
1.4089636559
 20
23.897213639
 10
2.5758990705
 20
23.0226295616
 10
3.734434866
 20
22.0961033738
 10
4.8824993362
 20
21.1192919001
 10
6.0180394994
 20
20.0939418852
 10
7.1390247705
 20
19.0218868714
 10
8.2434505913
 20
17.9050439191
 10
9.3293420155
 20
16.7454101791
 10
10.3947572402
 20
15.545059321
 10
11.4377910782
 20
14.3061378255
 10
12.4565783651
 20
13.0308611454
 10
13.4492972943
 20
11.7215097445
 10
14.4141726749
 20
10.3804250192
 10
15.3494791063
 20
9.0100051119
 10
16.2535440633
 20
7.6127006225
 10
17.1247508871
 20
6.191010226
 10
17.961541676
 20
4.7474762048
 10
18.7624200717
 20
3.2846799021
 10
19.5259539347
 20
1.8052371064
 10
20.2507779053
 20
0.3117933734
 10
20.9355958455
 20
-1.1929807046
 10
21.5791831563
 20
-2.706394274
 10
22.1803889679
 20
-4.2257410323
 10
22.7381381974
 20
-5.7483040668
 10
23.2514334717
 20
-7.2713607139
 10
23.7193569104
 20
-8.7921874269
 10
24.1410717677
 20
-10.308064647
 10
24.5158239286
 20
-11.8162816658
 10
24.8429432572
 20
-13.3141414733
 10
25.1218447951
 20
-14.7989655803
 10
25.3520298075
 20
-16.2680988079
  0
SPLINE
  5
27E
330
242
100
AcDbEntity
  8
0
  6
Continuous
 62
     8
370
    25
100
AcDbSpline
210
0.0
220
0.0
230
1.0
 70
     8
 71
     3
 72
    19
 73
    15
 74
     0
 42
0.000000001
 43
0.00000001
 40
0.0
 40
0.0
 40
0.0
 40
0.0
 40
0.0342117615459526
 40
0.1242133800947991
 40
0.2161276967024697
 40
0.3086955371921808
 40
0.3990041096836316
 40
0.4899184092390756
 40
0.5827172197500006
 40
0.6761559870510626
 40
0.7566212951064045
 40
0.8374901491958614
 40
0.9185451190841427
 40
1.0
 40
1.0
 40
1.0
 40
1.0
 10
-30.7881901186681
 20
11.2219267432291
 30
0.0
 10
-30.80670174223746
 20
11.13708739698593
 30
0.0
 10
-30.87391229295704
 20
10.82905935383057
 30
0.0
 10
-30.89106762126958
 20
10.28688376506287
 30
0.0
 10
-30.83779085612823
 20
9.599526428375771
 30
0.0
 10
-30.67935498249742
 20
8.915192438016053
 30
0.0
 10
-30.42721454824938
 20
8.242302918048193
 30
0.0
 10
-30.08147493816281
 20
7.581853513315575
 30
0.0
 10
-29.63960826604436
 20
6.931476332481926
 30
0.0
 10
-29.12776036324453
 20
6.326837226030332
 30
0.0
 10
-28.56571645459135
 20
5.771426603859585
 30
0.0
 10
-27.96832337778144
 20
5.265548109498652
 30
0.0
 10
-27.31346986447673
 20
4.779976452976464
 30
0.0
 10
-26.83013642385506
 20
4.478557211621097
 30
0.0
 10
-26.58787499998643
 20
4.327476718414934
 30
0.0
  0
LWPOLYLINE
  5
27F
330
242
100
AcDbEntity
  8
0
  6
Continuous
 62
     8
370
    25
100
AcDbPolyline
 90
       57
 70
   128
 43
0.0
 10
22.9321228903
 20
-15.8973600577
 10
22.6923957017
 20
-14.4649484871
 10
22.4045241997
 20
-13.0178983636
 10
22.069044942
 20
-11.5589068126
 10
21.6865832209
 20
-10.0906932166
 10
21.2578518985
 20
-8.6159941468
 10
20.7836500779
 20
-7.1375582627
 10
20.2648616133
 20
-5.6581411888
 10
19.7024534634
 20
-4.1805003783
 10
19.0974738883
 20
-2.7073899737
 10
18.4510504965
 20
-1.2415556733
 10
17.7643881423
 20
0.2142703863
 10
17.0387666807
 20
1.6573747225
 10
16.2755385817
 20
3.0850675647
 10
15.4761264096
 20
4.4946878674
 10
14.6420201713
 20
5.8836082699
 10
13.7747745392
 20
7.2492399938
 10
12.8760059536
 20
8.5890376679
 10
11.9473896096
 20
9.9005040725
 10
10.990656335
 20
11.181194794
 10
10.0075893641
 20
12.4287227809
 10
9.0000210139
 20
13.6407627929
 10
7.9698292692
 20
14.8150557351
 10
6.9189342819
 20
15.9494128685
 10
5.8492947922
 20
17.0417198895
 10
4.762904478
 20
18.0899408709
 10
3.6617882383
 20
19.0921220564
 10
2.5479984198
 20
20.0463955024
 10
1.4236109911
 20
20.9509825595
 10
0.2907216732
 20
21.8041971874
 10
-0.8485579659
 20
22.6044490981
 10
-1.992104448
 20
23.3502467195
 10
-3.1377863415
 20
24.0401999757
 10
-4.2834682351
 20
24.6730228777
 10
-5.4270147171
 20
25.2475359209
 10
-6.5662943563
 20
25.7626682828
 10
-7.6991836741
 20
26.2174598195
 10
-8.8235711029
 20
26.611062855
 10
-9.9373609213
 20
26.9427437611
 10
-11.038477161
 20
27.211884325
 10
-12.1248674753
 20
27.4179829015
 10
-13.1945069649
 20
27.560655348
 10
-14.2454019522
 20
27.6396357404
 10
-15.2755936969
 20
27.6547768688
 10
-16.2831620471
 20
27.6060505121
 10
-17.266229018
 20
27.4935474902
 10
-18.2229622926
 20
27.317477495
 10
-19.1515786366
 20
27.0781686996
 10
-20.0503472223
 20
26.7760671465
 10
-20.9175928544
 20
26.4117359161
 10
-21.7516990927
 20
25.9858540775
 10
-22.5511112647
 20
25.4992154225
 10
-23.3143393637
 20
24.9527269864
 10
-24.0399608253
 20
24.347407357
 10
-24.7266231795
 20
23.6843847763
 10
-25.3730465714
 20
22.9648950378
 10
-25.3966421347
 20
22.9366487142
  0
LWPOLYLINE
  5
280
330
242
100
AcDbEntity
  8
0
  6
Continuous
 62
     8
370
    25
100
AcDbPolyline
 90
        6
 70
   128
 43
0.0
 10
22.9321228903
 20
-15.8973600577
 10
22.9395908151
 20
-16.0833663602
 10
22.9243594605
 20
-16.2436556311
 10
22.8871566192
 20
-16.3705688419
 10
22.8297599376
 20
-16.4580417571
 10
22.7600834281
 20
-16.5004687412
  0
SPLINE
  5
283
330
242
100
AcDbEntity
  8
0
  6
Continuous
 62
     8
370
    25
100
AcDbSpline
210
0.0
220
0.0
230
1.0
 70
     8
 71
     3
 72
    10
 73
     6
 74
     0
 42
0.000000001
 43
0.00000001
 40
0.0
 40
0.0
 40
0.0
 40
0.0
 40
0.4343661537240024
 40
0.8697233946870787
 40
1.0
 40
1.0
 40
1.0
 40
1.0
 10
29.59512353812413
 20
-18.71758467979486
 30
0.0
 10
29.60985525340829
 20
-18.80764344792238
 30
0.0
 10
29.63935229712737
 20
-18.98796647002177
 30
0.0
 10
29.73868876549234
 20
-19.14547857158257
 30
0.0
 10
29.82421345097464
 20
-19.17797430415676
 30
0.0
 10
29.84391146899184
 20
-19.18545871081806
 30
0.0
  0
SPLINE
  5
286
330
242
100
AcDbEntity
  8
0
  6
Continuous
 62
     8
370
    25
100
AcDbSpline
210
0.0
220
0.0
230
1.0
 70
     8
 71
     3
 72
    10
 73
     6
 74
     0
 42
0.000000001
 43
0.00000001
 40
0.0
 40
0.0
 40
0.0
 40
0.0
 40
0.295562553816883
 40
0.7232431855649741
 40
1.0
 40
1.0
 40
1.0
 40
1.0
 10
-33.83776422524344
 20
17.90144196809824
 30
0.0
 10
-33.83791291653989
 20
17.84339797922988
 30
0.0
 10
-33.83827676495546
 20
17.70136402103754
 30
0.0
 10
-33.78085523646534
 20
17.54367213804971
 30
0.0
 10
-33.69469552210155
 20
17.49483256516048
 30
0.0
 10
-33.66084540778811
 20
17.47564465190511
 30
0.0
  0
LINE
  5
287
330
242
100
AcDbEntity
  8
0
  6
Continuous
 62
     7
370
    25
100
AcDbLine
 10
-23.2907516935
 20
34.7288669766
 30
0.0
 11
-24.7049652558
 21
33.9124588648
 31
0.0
  0
LINE
  5
288
330
242
100
AcDbEntity
  8
0
  6
Continuous
 62
     7
370
    25
100
AcDbLine
 10
29.2621621324
 20
-6.1633243881
 30
0.0
 11
33.6732366429
 21
-3.6168652761
 31
0.0
  0
LINE
  5
289
330
242
100
AcDbEntity
  8
0
  6
Continuous
 62
     7
370
    25
100
AcDbLine
 10
30.673480445
 20
1.5794278982
 30
0.0
 11
27.1391101652
 21
-0.4609206343
 31
0.0
  0
LINE
  5
28A
330
242
100
AcDbEntity
  8
0
  6
Continuous
 62
     7
370
    25
100
AcDbLine
 10
25.5591772223
 20
-16.7259436143
 30
0.0
 11
29.8391075586
 21
-19.1966948061
 31
0.0
  0
LINE
  5
28B
330
242
100
AcDbEntity
  8
0
  6
Continuous
 62
     7
370
    25
100
AcDbLine
 10
30.6044122204
 20
-19.1808111599
 30
0.0
 11
31.9434083642
 21
-18.4078251396
 31
0.0
  0
LINE
  5
28C
330
242
100
AcDbEntity
  8
0
  6
Continuous
 62
     7
370
    25
100
AcDbLine
 10
-26.3807275851
 20
3.8696319119
 30
0.0
 11
6.2889257604
 21
-14.9901575225
 31
0.0
  0
LINE
  5
28D
330
242
100
AcDbEntity
  8
0
  6
Continuous
 62
     7
370
    25
100
AcDbLine
 10
-33.6674848665
 20
17.4648806374
 30
0.0
 11
-29.725760153
 21
15.1893713959
 31
0.0
  0
LINE
  5
28E
330
242
100
AcDbEntity
  8
0
  6
Continuous
 62
     7
370
    25
100
AcDbLine
 10
30.7044761551
 20
-18.8924781374
 30
0.0
 11
31.7651363269
 21
-18.2801720535
 31
0.0
  0
LINE
  5
28F
330
242
100
AcDbEntity
  8
0
  6
Continuous
 62
     7
370
    25
100
AcDbLine
 10
25.3520298075
 20
-16.2680988079
 30
0.0
 11
29.5951235381
 21
-18.7175846798
 31
0.0
  0
LINE
  5
290
330
242
100
AcDbEntity
  8
0
  6
Continuous
 62
     7
370
    25
100
AcDbLine
 10
-30.7761036161
 20
11.2820919435
 30
0.0
 11
-30.7881901187
 21
11.2219267432
 31
0.0
  0
LINE
  5
291
330
242
100
AcDbEntity
  8
0
  6
Continuous
 62
     7
370
    25
100
AcDbLine
 10
-28.9346397287
 20
11.2576591877
 30
0.0
 11
11.256970199
 21
-11.9444633525
 31
0.0
  0
LINE
  5
292
330
242
100
AcDbEntity
  8
0
  6
Continuous
 62
     7
370
    25
100
AcDbLine
 10
6.2889257604
 20
-14.9901575225
 30
0.0
 11
6.3014240475
 21
-14.9970206425
 31
0.0
  0
LINE
  5
293
330
242
100
AcDbEntity
  8
0
  6
Continuous
 62
     7
370
    25
100
AcDbLine
 10
9.8851825264
 20
-12.7855510754
 30
0.0
 11
-28.3912791808
 21
9.3109799303
 31
0.0
  0
LINE
  5
294
330
242
100
AcDbEntity
  8
0
  6
Continuous
 62
     7
370
    25
100
AcDbLine
 10
-25.9037669541
 20
6.5221905064
 30
0.0
 11
6.2260974244
 21
-12.0259853903
 31
0.0
  0
LINE
  5
295
330
242
100
AcDbEntity
  8
0
  6
Continuous
 62
     7
370
    25
100
AcDbLine
 10
5.8118838621
 20
-13.4198688804
 30
0.0
 11
-26.3179805165
 21
5.1283070163
 31
0.0
  0
LINE
  5
296
330
242
100
AcDbEntity
  8
0
  6
Continuous
 62
     7
370
    25
100
AcDbLine
 10
-26.587875
 20
4.3274767184
 30
0.0
 11
6.0817783456
 21
-14.5323127161
 31
0.0
  0
LINE
  5
297
330
242
100
AcDbEntity
  8
0
  6
Continuous
 62
     8
370
    25
100
AcDbLine
 10
-33.8377642252
 20
17.9014419681
 30
0.0
 11
-29.6256495498
 21
15.469839924
 31
0.0
  0
ARC
  5
298
330
242
100
AcDbEntity
  8
0
  6
Continuous
 62
     7
370
    25
100
AcDbCircle
 10
-17.0064515618
 20
20.5764886507
 30
0.0
 40
15.39809831827606
100
AcDbArc
 50
110.599366405
 51
129.8322629851
  0
ARC
  5
299
330
242
100
AcDbEntity
  8
0
  6
Continuous
 62
     7
370
    25
100
AcDbCircle
 10
29.8717104013
 20
-17.8655349326
 30
0.0
 40
0.8958175397813608
100
AcDbArc
 50
252.015869138
 51
298.4263566458
  0
ARC
  5
29A
330
242
100
AcDbEntity
  8
0
  6
Continuous
 62
     7
370
    25
100
AcDbCircle
 10
-15.5868093352
 20
21.3757675073
 30
0.0
 40
15.41609526743809
100
AcDbArc
 50
110.2002783911
 51
119.9823834289
  0
ARC
  5
29B
330
242
100
AcDbEntity
  8
0
  6
Continuous
 62
     7
370
    25
100
AcDbCircle
 10
-26.5728449526
 20
-21.8658205013
 30
0.0
 40
33.4679661644282
100
AcDbArc
 50
12.6573639804
 51
14.6171658587
  0
ARC
  5
29C
330
242
100
AcDbEntity
  8
0
  6
Continuous
 62
     7
370
    25
100
AcDbCircle
 10
-13.6961819824
 20
0.4286348069
 30
0.0
 40
13.46835985228626
100
AcDbArc
 50
159.577402368
 51
163.1730792693
  0
ARC
  5
29D
330
242
100
AcDbEntity
  8
0
  6
Continuous
 62
     7
370
    25
100
AcDbCircle
 10
-27.6354351921
 20
12.543882452
 30
0.0
 40
1.828196574117656
100
AcDbArc
 50
192.2872632032
 51
224.7123238704
  0
ARC
  5
29E
330
242
100
AcDbEntity
  8
0
  6
Continuous
 62
     7
370
    25
100
AcDbCircle
 10
11.5055539131
 20
-8.381883058
 30
0.0
 40
3.571242391353536
100
AcDbArc
 50
266.0085811434
 51
281.4663233994
  0
ARC
  5
29F
330
242
100
AcDbEntity
  8
0
  6
Continuous
 62
     7
370
    25
100
AcDbCircle
 10
13.7954977559
 20
-13.0392796599
 30
0.0
 40
3.918538425050198
100
AcDbArc
 50
176.2874538391
 51
197.5437664086
  0
ARC
  5
2A0
330
242
100
AcDbEntity
  8
0
  6
Continuous
 62
     7
370
    25
100
AcDbCircle
 10
8.6958141622
 20
-13.5183857325
 30
0.0
 40
2.885612507998203
100
AcDbArc
 50
148.8562722006
 51
178.043501357
  0
ARC
  5
2A1
330
242
100
AcDbEntity
  8
0
  6
Continuous
 62
     7
370
    25
100
AcDbCircle
 10
-23.4340502163
 20
5.0297901642
 30
0.0
 40
2.885612507998305
100
AcDbArc
 50
148.8562722006
 51
178.043501357
  0
ARC
  5
2A2
330
242
100
AcDbEntity
  8
0
  6
Continuous
 62
     7
370
    25
100
AcDbCircle
 10
-27.2659071632
 20
7.4556069387
 30
0.0
 40
2.169993344679315
100
AcDbArc
 50
121.2388049737
 51
152.9476256967
  0
ARC
  5
2A3
330
242
100
AcDbEntity
  8
0
  6
Continuous
 62
     8
370
    25
100
AcDbCircle
 10
-33.6768736125
 20
18.1580050237
 30
0.0
 40
0.3028372348085767
100
AcDbArc
 50
176.4873644058
 51
237.9081881127
  0
ARC
  5
2A4
330
242
100
AcDbEntity
  8
0
  6
Continuous
 62
     8
370
    25
100
AcDbCircle
 10
6.5574639015
 20
-14.5928767447
 30
0.0
 40
0.4795255464446453
100
AcDbArc
 50
172.7441704404
 51
235.9436491663
  0
ARC
  5
2A5
330
242
100
AcDbEntity
  8
0
  6
Continuous
 62
     8
370
    25
100
AcDbCircle
 10
30.4437645477
 20
-18.9635935163
 30
0.0
 40
0.2702368208534527
100
AcDbArc
 50
306.6131511666
 51
15.2576169109
  0
ARC
  5
2A6
330
242
100
AcDbEntity
  8
0
  6
Continuous
 62
     8
370
    25
100
AcDbCircle
 10
25.8277153634
 20
-16.3286628365
 30
0.0
 40
0.4795255464230597
100
AcDbArc
 50
172.7441704388
 51
235.9436491679
  0
ARC
  5
2A7
330
242
100
AcDbEntity
  8
0
  6
Continuous
 62
     8
370
    25
100
AcDbCircle
 10
-26.112189444
 20
4.2669126898
 30
0.0
 40
0.4795255464478136
100
AcDbArc
 50
172.7441704406
 51
235.943649166
  0
VIEWPORT
  5
37E
330
242
100
AcDbEntity
  8
0
100
AcDbViewport
 10
0.0
 20
0.0
 30
0.0
 40
205.6
 41
156.0
 68
     1
 69
     1
 12
0.0
 22
-20.0
 13
0.0
 23
0.0
 14
10.0
 24
10.0
 15
10.0
 25
10.0
 16
0.0
 26
0.0
 36
1.0
 17
0.0
 27
0.0
 37
0.0
 42
50.0
 43
0.0
 44
0.0
 45
70.3156390604
 50
0.0
 51
0.0
 72
   100
 90
   557152
  1

281
     0
 71
     1
 74
     0
110
0.0
120
0.0
130
0.0
111
1.0
121
0.0
131
0.0
112
0.0
122
1.0
132
0.0
 79
     0
146
0.0
  0
ENDBLK
  5
245
330
242
100
AcDbEntity
  8
0
100
AcDbBlockEnd
  0
BLOCK
  5
2AA
330
2A8
100
AcDbEntity
  8
0
100
AcDbBlockBegin
  2
*Paper_Space5
 70
     0
 10
0.0
 20
0.0
 30
0.0
  3
*Paper_Space5
  1

  0
SPLINE
  5
2AC
330
2A8
100
AcDbEntity
  8
0
  6
Continuous
 62
     7
370
    25
100
AcDbSpline
210
0.0
220
0.0
230
1.0
 70
     8
 71
     3
 72
    11
 73
     7
 74
     0
 42
0.000000001
 43
0.00000001
 40
0.0
 40
0.0
 40
0.0
 40
0.0
 40
0.1649062182352207
 40
0.4789844294376361
 40
0.7944102987629825
 40
0.9999999999999999
 40
0.9999999999999999
 40
0.9999999999999999
 40
0.9999999999999999
 10
-33.66414446708163
 20
11.39113885031745
 30
0.0
 10
-33.74689094982391
 20
11.16878669319389
 30
0.0
 10
-33.98723529370879
 20
10.52294554630554
 30
0.0
 10
-34.32129020654435
 20
9.426974824553248
 30
0.0
 10
-34.63799007864979
 20
8.263581622733971
 30
0.0
 10
-34.79364290646151
 20
7.52577695703088
 30
0.0
 10
-34.85506260325094
 20
7.234643544972861
 30
0.0
  0
SPLINE
  5
2AD
330
2A8
100
AcDbEntity
  8
0
  6
Continuous
 62
     7
370
    25
100
AcDbSpline
210
0.0
220
0.0
230
1.0
 70
     8
 71
     3
 72
    18
 73
    14
 74
     0
 42
0.000000001
 43
0.00000001
 40
0.0
 40
0.0
 40
0.0
 40
0.0
 40
0.0504103597321769
 40
0.154946620971225
 40
0.2595034208173918
 40
0.3640840950900611
 40
0.468691241185277
 40
0.5733266918259683
 40
0.6779915253766928
 40
0.7826861079469821
 40
0.8874101608498135
 40
0.9866882214351798
 40
1.0
 40
1.0
 40
1.0
 40
1.0
 10
-36.69700055108462
 20
22.46432336457916
 30
0.0
 10
-36.81552111836632
 20
22.29162764445587
 30
0.0
 10
-37.17981848726944
 20
21.76081178772599
 30
0.0
 10
-37.73714269090457
 20
20.83016578275618
 30
0.0
 10
-38.37044885489398
 20
19.67635131004685
 30
0.0
 10
-38.95015134004966
 20
18.48494885089908
 30
0.0
 10
-39.47879897057738
 20
17.26026008716829
 30
0.0
 10
-39.95476393293343
 20
16.00322968202438
 30
0.0
 10
-40.3775973580599
 20
14.71575356987663
 30
0.0
 10
-40.74672789168103
 20
13.3995697387311
 30
0.0
 10
-41.05583984086685
 20
12.07977959825207
 30
0.0
 10
-41.23718472112222
 20
11.13427906451936
 30
0.0
 10
-41.31980883876378
 20
10.63975156482422
 30
0.0
 10
-41.32957769505187
 20
10.58128234042668
 30
0.0
  0
SPLINE
  5
2AF
330
2A8
100
AcDbEntity
  8
0
  6
Continuous
 62
     7
370
    25
100
AcDbSpline
210
0.0
220
0.0
230
1.0
 70
     8
 71
     3
 72
    66
 73
    62
 74
     0
 42
0.000000001
 43
0.00000001
 40
0.0
 40
0.0
 40
0.0
 40
0.0
 40
0.015588174689148
 40
0.032587897070381
 40
0.0495889092256919
 40
0.0665909646855267
 40
0.0835938449000783
 40
0.1005973589579103
 40
0.1176013426794754
 40
0.1346056572617297
 40
0.1516101876192617
 40
0.1686148376712807
 40
0.1856195163469229
 40
0.2026241739777177
 40
0.2196287762970222
 40
0.2366333025977607
 40
0.2536377439823811
 40
0.2706421017116331
 40
0.287646385653267
 40
0.3046506128261502
 40
0.3216548060310485
 40
0.3386589925561242
 40
0.3556632029430581
 40
0.3726674697981437
 40
0.3896718206595607
 40
0.4066762837649747
 40
0.4236808915650905
 40
0.4406856743226261
 40
0.4576906589037987
 40
0.47469586751751
 40
0.4917013163856853
 40
0.5087070143303251
 40
0.5257129612650587
 40
0.5427191465820841
 40
0.559725547429633
 40
0.5767321268809842
 40
0.5937388320035439
 40
0.6107455656917236
 40
0.6277522286236931
 40
0.644758699938951
 40
0.6617648340041176
 40
0.6787704586286218
 40
0.6957753735840716
 40
0.7127793495770434
 40
0.7297821278544927
 40
0.74678342064926
 40
0.7637829126965618
 40
0.7807802640671174
 40
0.7977751145629481
 40
0.8147670899016802
 40
0.8317558098680051
 40
0.8487408985302437
 40
0.8657219965018702
 40
0.8826987750708872
 40
0.8996709518285909
 40
0.9166383072136081
 40
0.9336007011660111
 40
0.9505580888846247
 40
0.9675105345299657
 40
0.9844582216480523
 40
1.0
 40
1.0
 40
1.0
 40
1.0
 10
40.02609841560417
 20
-10.75706819832092
 30
0.0
 10
39.96036522494568
 20
-10.29772534474016
 30
0.0
 10
39.82294654097508
 20
-9.337445008458959
 30
0.0
 10
39.5457735110535
 20
-7.86888973920534
 30
0.0
 10
39.2109675220909
 20
-6.355681050557206
 30
0.0
 10
38.82074220063615
 20
-4.840853505351774
 30
0.0
 10
38.3772866332618
 20
-3.32670344288764
 30
0.0
 10
37.88077824191591
 20
-1.815251735854707
 30
0.0
 10
37.33202575584925
 20
-0.30858686306761
 30
0.0
 10
36.73175945647034
 20
1.191230472028794
 30
0.0
 10
36.08081981403875
 20
2.682145093685071
 30
0.0
 10
35.38010550923917
 20
4.162116214114757
 30
0.0
 10
34.63058543603756
 20
5.629118956875276
 30
0.0
 10
33.83329353774735
 20
7.081147480097355
 30
0.0
 10
32.9893279890503
 20
8.51621779029731
 30
0.0
 10
32.09984971606864
 20
9.932369610119652
 30
0.0
 10
31.16608085414161
 20
11.32766887775786
 30
0.0
 10
30.1893030513
 20
12.70021023246967
 30
0.0
 10
29.1708557299282
 20
14.04811946840596
 30
0.0
 10
28.11213427632656
 20
15.36955595738121
 30
0.0
 10
27.01458816684488
 20
16.66271503585124
 30
0.0
 10
25.87971902951739
 20
17.92583035253893
 30
0.0
 10
24.70907864343229
 20
19.15717617271
 30
0.0
 10
23.50426701881536
 20
20.35506949505671
 30
0.0
 10
22.2669302765516
 20
21.51787230190143
 30
0.0
 10
20.99875834926955
 20
22.64399385733899
 30
0.0
 10
19.70148258334137
 20
23.73189293171636
 30
0.0
 10
18.37687345805287
 20
24.78007979725737
 30
0.0
 10
17.02673839305852
 20
25.78711807411979
 30
0.0
 10
15.65291938969192
 20
26.7516266300014
 30
0.0
 10
14.25729063721935
 20
27.67228141249657
 30
0.0
 10
12.84175608842875
 20
28.54781721308184
 30
0.0
 10
11.40824700887528
 20
29.37702936223738
 30
0.0
 10
9.958719503952109
 20
30.15877535584665
 30
0.0
 10
8.495152027617642
 20
30.89197641369801
 30
0.0
 10
7.019542876228545
 20
31.57561897155055
 30
0.0
 10
5.533908431462032
 20
32.2087557844524
 30
0.0
 10
4.040280131542318
 20
32.79050764136291
 30
0.0
 10
2.540701904714697
 20
33.32006473204741
 30
0.0
 10
1.037226852307231
 20
33.79668814657573
 30
0.0
 10
-0.4680847877699456
 20
34.21971085287226
 30
0.0
 10
-1.973168200939207
 20
34.58853884810735
 30
0.0
 10
-3.475956622340837
 20
34.90265227727135
 30
0.0
 10
-4.974384002025984
 20
35.16160650404347
 30
0.0
 10
-6.46638772047909
 20
35.36503313088924
 30
0.0
 10
-7.949911367760603
 20
35.51264096199058
 30
0.0
 10
-9.422907599993652
 20
35.60421689751701
 30
0.0
 10
-10.8833410886023
 20
35.63962674497917
 30
0.0
 10
-12.3291915689554
 20
35.61881591813299
 30
0.0
 10
-13.75845701745743
 20
35.54181002264095
 30
0.0
 10
-15.16915688246403
 20
35.40871519160732
 30
0.0
 10
-16.55933564955165
 20
35.2197185154387
 30
0.0
 10
-17.92706565278385
 20
34.97508709472891
 30
0.0
 10
-19.27045309518687
 20
34.67517101045653
 30
0.0
 10
-20.5876323314438
 20
34.32039027351986
 30
0.0
 10
-21.87680394333508
 20
33.91127997595019
 30
0.0
 10
-23.13610915665538
 20
33.44831665486173
 30
0.0
 10
-24.36411413626452
 20
32.93255913589075
 30
0.0
 10
-25.55801816434867
 20
32.36324941378841
 30
0.0
 10
-26.68831251831202
 20
31.76374579755283
 30
0.0
 10
-27.40141025584728
 20
31.32860831019453
 30
0.0
 10
-27.74253027181892
 20
31.12045436603733
 30
0.0
  0
SPLINE
  5
2B0
330
2A8
100
AcDbEntity
  8
0
  6
Continuous
 62
     7
370
    25
100
AcDbSpline
210
0.0
220
0.0
230
1.0
 70
     8
 71
     3
 72
    27
 73
    23
 74
     0
 42
0.000000001
 43
0.00000001
 40
0.0
 40
0.0
 40
0.0
 40
0.0
 40
0.0160014147364005
 40
0.0717839828650097
 40
0.1273524896208903
 40
0.1826187804793985
 40
0.2375083308653162
 40
0.2919657108909434
 40
0.3459590509310166
 40
0.3994831710680833
 40
0.4525612476572315
 40
0.5051936844192642
 40
0.5575467451813436
 40
0.6104853055587844
 40
0.6636856460182983
 40
0.7170388218038561
 40
0.7704198270166532
 40
0.8237082697545441
 40
0.876809565076182
 40
0.9293918677055237
 40
0.9824266571873163
 40
1.0
 40
1.0
 40
1.0
 40
1.0
 10
13.88133129606653
 20
-11.79727800706233
 30
0.0
 10
13.96471059778087
 20
-11.82089500454877
 30
0.0
 10
14.33875867191419
 20
-11.92684327042506
 30
0.0
 10
15.03058744266369
 20
-12.08433882958124
 30
0.0
 10
15.95140201732689
 20
-12.26765515759155
 30
0.0
 10
16.88946847141507
 20
-12.41584893484579
 30
0.0
 10
17.83684100280235
 20
-12.53116381106798
 30
0.0
 10
18.78920474143425
 20
-12.61243489584049
 30
0.0
 10
19.74161522824201
 20
-12.65967189944376
 30
0.0
 10
20.68974538381721
 20
-12.6727922675147
 30
0.0
 10
21.62936547092345
 20
-12.65199320433809
 30
0.0
 10
22.55717068957784
 20
-12.59733503159444
 30
0.0
 10
23.47514379311629
 20
-12.50996766842673
 30
0.0
 10
24.3834393846846
 20
-12.39001447108399
 30
0.0
 10
25.28034954881732
 20
-12.2371967338989
 30
0.0
 10
26.1585725310125
 20
-12.05220503141755
 30
0.0
 10
27.01218212966134
 20
-11.83584292396057
 30
0.0
 10
27.83519188281061
 20
-11.58896049268812
 30
0.0
 10
28.62201990262356
 20
-11.3135592738075
 30
0.0
 10
29.36818197923235
 20
-11.00792019637721
 30
0.0
 10
29.9259175376761
 20
-10.75457565198185
 30
0.0
 10
30.22046886473138
 20
-10.59365859473929
 30
0.0
 10
30.29377842948075
 20
-10.5536086667857
 30
0.0
  0
SPLINE
  5
2B3
330
2A8
100
AcDbEntity
  8
0
  6
Continuous
 62
     7
370
    25
100
AcDbSpline
210
0.0
220
0.0
230
1.0
 70
     8
 71
     3
 72
    12
 73
     8
 74
     0
 42
0.000000001
 43
0.00000001
 40
0.0
 40
0.0
 40
0.0
 40
0.0
 40
0.1688115346309847
 40
0.4479347416037164
 40
0.7095852962364343
 40
0.9660035770580435
 40
0.9999999999999999
 40
0.9999999999999999
 40
0.9999999999999999
 40
0.9999999999999999
 10
38.5294502679095
 20
-11.80836472361406
 30
0.0
 10
38.56659906809698
 20
-11.81898930344449
 30
0.0
 10
38.66517194257059
 20
-11.847181206512
 30
0.0
 10
38.83061913114288
 20
-11.82823132011818
 30
0.0
 10
38.99718606773644
 20
-11.7610996965054
 30
0.0
 10
39.10229677150387
 20
-11.69266754164491
 30
0.0
 10
39.14400144307303
 20
-11.64376285221497
 30
0.0
 10
39.14888346052926
 20
-11.63803798882424
 30
0.0
  0
SPLINE
  5
2B7
330
2A8
100
AcDbEntity
  8
0
  6
Continuous
 62
     7
370
    25
100
AcDbSpline
210
0.0
220
0.0
230
1.0
 70
     8
 71
     3
 72
    16
 73
    12
 74
     0
 42
0.000000001
 43
0.00000001
 40
0.0
 40
0.0
 40
0.0
 40
0.0
 40
0.1038526589167726
 40
0.2053484851475416
 40
0.3152551135747594
 40
0.4252767541716778
 40
0.5396532359784418
 40
0.6551101685031929
 40
0.7713177958301527
 40
0.8874319388879867
 40
0.9999999999999999
 40
0.9999999999999999
 40
0.9999999999999999
 40
0.9999999999999999
 10
30.29884739120464
 20
-10.55693954818264
 30
0.0
 10
30.36680759318581
 20
-10.52391269957997
 30
0.0
 10
30.50118570803349
 20
-10.4586085138182
 30
0.0
 10
30.76326899373882
 20
-10.36924019264792
 30
0.0
 10
31.06131666211037
 20
-10.29527052776315
 30
0.0
 10
31.3976610256249
 20
-10.24003426526238
 30
0.0
 10
31.75588096574825
 20
-10.2097774387233
 30
0.0
 10
32.12727784841555
 20
-10.20613529827264
 30
0.0
 10
32.49598628643676
 20
-10.23056815515293
 30
0.0
 10
32.8500967961198
 20
-10.28019381212914
 30
0.0
 10
33.06249793936546
 20
-10.3325303308314
 30
0.0
 10
33.1670517019109
 20
-10.35829280962617
 30
0.0
  0
SPLINE
  5
2B8
330
2A8
100
AcDbEntity
  8
0
  6
Continuous
 62
     7
370
    25
100
AcDbSpline
210
0.0
220
0.0
230
1.0
 70
     8
 71
     3
 72
    25
 73
    21
 74
     0
 42
0.000000001
 43
0.00000001
 40
0.0
 40
0.0
 40
0.0
 40
0.0
 40
0.0037876572366569
 40
0.0599398798636916
 40
0.1160743674030019
 40
0.1724125213935619
 40
0.2291811393657053
 40
0.2865394795313275
 40
0.3445540861190652
 40
0.4031923736871753
 40
0.4622972858156708
 40
0.5214587632187533
 40
0.5817725651656311
 40
0.6428072481536353
 40
0.7044544018718136
 40
0.7666217587097227
 40
0.829232011389103
 40
0.8922138079591303
 40
0.9554941274003667
 40
0.9999999999999999
 40
0.9999999999999999
 40
0.9999999999999999
 40
0.9999999999999999
 10
-34.93066628413729
 20
6.418086067758407
 30
0.0
 10
-34.93160397062339
 20
6.406125946916079
 30
0.0
 10
-34.94644290979215
 20
6.216856390128776
 30
0.0
 10
-34.91639916173308
 20
5.848903593604675
 30
0.0
 10
-34.83615930883153
 20
5.319565534758248
 30
0.0
 10
-34.68718156709003
 20
4.796776840447196
 30
0.0
 10
-34.47885970615528
 20
4.282857684280709
 30
0.0
 10
-34.20917262442936
 20
3.779653661438209
 30
0.0
 10
-33.87916476292226
 20
3.28936398886983
 30
0.0
 10
-33.48964911332586
 20
2.814542936356699
 30
0.0
 10
-33.0425420479902
 20
2.358730785014541
 30
0.0
 10
-32.54031874306459
 20
1.922667123458007
 30
0.0
 10
-31.98322058496666
 20
1.505640246067419
 30
0.0
 10
-31.37084394691334
 20
1.107807464034896
 30
0.0
 10
-30.7068226876769
 20
0.7315563267978921
 30
0.0
 10
-29.99407956260533
 20
0.3786143218552848
 30
0.0
 10
-29.23622335142803
 20
0.0500966272920979
 30
0.0
 10
-28.43545700231145
 20
-0.2512106300665111
 30
0.0
 10
-27.6841318946393
 20
-0.5013262037147047
 30
0.0
 10
-27.18789374910818
 20
-0.6374907907005268
 30
0.0
 10
-26.98299262711927
 20
-0.6937143537212378
 30
0.0
  0
SPLINE
  5
2B9
330
2A8
100
AcDbEntity
  8
0
  6
Continuous
 62
     7
370
    25
100
AcDbSpline
210
0.0
220
0.0
230
1.0
 70
     8
 71
     3
 72
    13
 73
     9
 74
     0
 42
0.000000001
 43
0.00000001
 40
0.0
 40
0.0
 40
0.0
 40
0.0
 40
0.0467503733690449
 40
0.2873973701909852
 40
0.5231541016168524
 40
0.7493068265522654
 40
0.9475762411448565
 40
0.9999999999999999
 40
0.9999999999999999
 40
0.9999999999999999
 40
0.9999999999999999
 10
-35.55998883415052
 20
8.31829855099608
 30
0.0
 10
-35.53948645317679
 20
8.313458593126166
 30
0.0
 10
-35.4134483073851
 20
8.283705009070951
 30
0.0
 10
-35.21649638715013
 20
8.210179265710435
 30
0.0
 10
-34.9852939510239
 20
8.1061611230467
 30
0.0
 10
-34.82439112250351
 20
8.006632465265687
 30
0.0
 10
-34.73322459771719
 20
7.935009461480007
 30
0.0
 10
-34.71223954905663
 20
7.911940218484107
 30
0.0
 10
-34.70785125592756
 20
7.907116088591955
 30
0.0
  0
SPLINE
  5
2BB
330
2A8
100
AcDbEntity
  8
0
  6
Continuous
 62
     7
370
    25
100
AcDbSpline
210
0.0
220
0.0
230
1.0
 70
     8
 71
     3
 72
    13
 73
     9
 74
     0
 42
0.000000001
 43
0.00000001
 40
0.0
 40
0.0
 40
0.0
 40
0.0
 40
0.1896368903149323
 40
0.3699607068319823
 40
0.5324063359238737
 40
0.6968088671223347
 40
0.8646401120730455
 40
1.0
 40
1.0
 40
1.0
 40
1.0
 10
-41.32513924648595
 20
10.58277565603641
 30
0.0
 10
-41.33464350947156
 20
10.52150384929828
 30
0.0
 10
-41.35318528078108
 20
10.40196929622654
 30
0.0
 10
-41.33643775018022
 20
10.23540637114369
 30
0.0
 10
-41.28508118472794
 20
10.07489353289689
 30
0.0
 10
-41.19066869495979
 20
9.93495477337216
 30
0.0
 10
-41.06476560751109
 20
9.827118882813762
 30
0.0
 10
-40.96382642173815
 20
9.795887148598585
 30
0.0
 10
-40.91876205345011
 20
9.781943719570805
 30
0.0
  0
SPLINE
  5
2BC
330
2A8
100
AcDbEntity
  8
0
  6
Continuous
 62
     7
370
    25
100
AcDbSpline
210
0.0
220
0.0
230
1.0
 70
     8
 71
     3
 72
    26
 73
    22
 74
     0
 42
0.000000001
 43
0.00000001
 40
0.0
 40
0.0
 40
0.0
 40
0.0
 40
0.1249999999999996
 40
0.1249999999999996
 40
0.2499999999999992
 40
0.2499999999999992
 40
0.3124999999999989
 40
0.3124999999999989
 40
0.3749999999999988
 40
0.3749999999999988
 40
0.4999999999999989
 40
0.4999999999999989
 40
0.562499999999999
 40
0.562499999999999
 40
0.624999999999999
 40
0.624999999999999
 40
0.7499999999999993
 40
0.7499999999999993
 40
0.8749999999999998
 40
0.8749999999999998
 40
1.0
 40
1.0
 40
1.0
 40
1.0
 10
13.66380100452616
 20
-11.30038982741029
 30
0.0
 10
14.34270166266883
 20
-11.47197127809467
 30
0.0
 10
15.0401478505754
 20
-11.61584559044794
 30
0.0
 10
16.47123993620021
 20
-11.84898167480678
 30
0.0
 10
17.20488002649464
 20
-11.9382551044457
 30
0.0
 10
18.33374179906761
 20
-12.02894772546394
 30
0.0
 10
18.71505077913502
 20
-12.05186817260778
 30
0.0
 10
19.47352793970007
 20
-12.08221519005832
 30
0.0
 10
19.85240645341213
 20
-12.08980516741556
 30
0.0
 10
20.98797475313524
 20
-12.09004323417354
 30
0.0
 10
21.74360399891346
 20
-12.06030037433251
 30
0.0
 10
22.87485710067154
 20
-11.96923926272072
 30
0.0
 10
23.25329175618226
 20
-11.93088263014314
 30
0.0
 10
24.00018325020516
 20
-11.83908684793086
 30
0.0
 10
24.36793186896877
 20
-11.78582467452411
 30
0.0
 10
25.45446131018631
 20
-11.6043797148773
 30
0.0
 10
26.15663189704896
 20
-11.45467490336771
 30
0.0
 10
27.51600396524246
 20
-11.0967743707013
 30
0.0
 10
28.17600089837622
 20
-10.88713961743799
 30
0.0
 10
29.41554761403962
 20
-10.41703649885779
 30
0.0
 10
29.99843913801319
 20
-10.15573439399299
 30
0.0
 10
30.5361372745722
 20
-9.871390646626955
 30
0.0
  0
SPLINE
  5
2BE
330
2A8
100
AcDbEntity
  8
0
  6
Continuous
 62
     7
370
    25
100
AcDbSpline
210
0.0
220
0.0
230
1.0
 70
     8
 71
     3
 72
    12
 73
     8
 74
     0
 42
0.000000001
 43
0.00000001
 40
0.0
 40
0.0
 40
0.0
 40
0.0
 40
0.25
 40
0.25
 40
0.5
 40
0.5
 40
1.0
 40
1.0
 40
1.0
 40
1.0
 10
18.23488512970961
 20
-10.07045189789726
 30
0.0
 10
17.82118844858602
 20
-10.18746531786138
 30
0.0
 10
17.40593910708257
 20
-10.27727644146255
 30
0.0
 10
16.57253643013228
 20
-10.40349089416923
 30
0.0
 10
16.15260689635123
 20
-10.43971344807518
 30
0.0
 10
14.9142284978364
 20
-10.4682223311627
 30
0.0
 10
14.11016329851184
 20
-10.38274665545452
 30
0.0
 10
13.32622883226082
 20
-10.2044109852281
 30
0.0
  0
SPLINE
  5
2BF
330
2A8
100
AcDbEntity
  8
0
  6
Continuous
 62
     7
370
    25
100
AcDbSpline
210
0.0
220
0.0
230
1.0
 70
     8
 71
     3
 72
    18
 73
    14
 74
     0
 42
0.000000001
 43
0.00000001
 40
0.0
 40
0.0
 40
0.0
 40
0.0
 40
0.2500000000000002
 40
0.2500000000000002
 40
0.5000000000000004
 40
0.5000000000000004
 40
0.6250000000000003
 40
0.6250000000000003
 40
0.7500000000000002
 40
0.7500000000000002
 40
0.8750000000000001
 40
0.8750000000000001
 40
1.0
 40
1.0
 40
1.0
 40
1.0
 10
18.23488512970961
 20
-10.07045189789726
 30
0.0
 10
18.56041850000792
 20
-9.978375324143762
 30
0.0
 10
18.87642999534084
 20
-9.859687341720976
 30
0.0
 10
19.47517811848479
 20
-9.541888808892208
 30
0.0
 10
19.75137854382197
 20
-9.346386710005406
 30
0.0
 10
20.09326065579332
 20
-8.974724085219599
 30
0.0
 10
20.19200668857362
 20
-8.840677128040541
 30
0.0
 10
20.35190067475485
 20
-8.548509900687499
 30
0.0
 10
20.41135638323103
 20
-8.391921043822453
 30
0.0
 10
20.47996244556927
 20
-8.070946112359485
 30
0.0
 10
20.48934881044777
 20
-7.902106760306844
 30
0.0
 10
20.45879127005393
 20
-7.576344093967409
 30
0.0
 10
20.42010375256239
 20
-7.417428119494661
 30
0.0
 10
20.36088951922589
 20
-7.262011107130443
 30
0.0
  0
LWPOLYLINE
  5
2C0
330
2A8
100
AcDbEntity
  8
0
  6
Continuous
 62
     7
370
    25
100
AcDbPolyline
 90
       51
 70
   128
 43
0.0
 10
-31.7171439832
 20
6.8916825016
 10
-31.1820414688
 20
7.9254648552
 10
-30.5901250876
 20
8.918022204
 10
-29.9427134239
 20
9.8671434747
 10
-29.2412486859
 20
10.7707143546
 10
-28.4872934938
 20
11.6267220015
 10
-27.6825273978
 20
12.4332595276
 10
-26.8287431375
 20
13.1885302472
 10
-25.9278426477
 20
13.8908516793
 10
-24.9818328221
 20
14.5386592958
 10
-23.992821042
 20
15.130510006
 10
-22.9630104824
 20
15.665085372
 10
-21.8946952036
 20
16.1411945457
 10
-20.7902550413
 20
16.5577769209
 10
-19.6521503047
 20
16.9139044968
 10
-18.482916296
 20
17.2087839447
 10
-17.2851576626
 20
17.4417583758
 10
-16.0615425951
 20
17.6123088037
 10
-14.8147968829
 20
17.7200553013
 10
-13.5476978427
 20
17.7647578469
 10
-12.2630681312
 20
17.7463168588
 10
-10.9637694575
 20
17.6647734169
 10
-9.6526962079
 20
17.5203091719
 10
-8.3327689985
 20
17.3132459398
 10
-7.0069281688
 20
17.0440449857
 10
-5.678127232
 20
16.7133059959
 10
-4.3493262951
 20
16.321765742
 10
-3.0234854655
 20
15.8702964397
 10
-1.703558256
 20
15.359903806
 10
-0.3924850065
 20
14.7917248183
 10
0.9068136673
 20
14.1670251824
 10
2.1914433787
 20
13.487196512
 10
3.4585424189
 20
12.7537532294
 10
4.7052881311
 20
11.9683291916
 10
5.9289031987
 20
11.1326740508
 10
7.126661832
 20
10.2486493564
 10
8.2958958407
 20
9.3182244086
 10
9.4340005773
 20
8.3434718712
 10
10.5384407397
 20
7.3265631543
 10
11.6067560184
 20
6.2697635776
 10
12.636566578
 20
5.1754273237
 10
13.6255783581
 20
4.0459921937
 10
14.5715881838
 20
2.8839741772
 10
15.4724886735
 20
1.6919618467
 10
16.3262729338
 20
0.472610592
 10
17.1310390298
 20
-0.7713632958
 10
17.884994222
 20
-2.0371886745
 10
18.5864589599
 20
-3.3220457248
 10
19.2338706236
 20
-4.6230722312
 10
19.8257870048
 20
-5.9373699584
 10
20.3608895192
 20
-7.2620111071
  0
SPLINE
  5
2C1
330
2A8
100
AcDbEntity
  8
0
  6
Continuous
 62
     7
370
    25
100
AcDbSpline
210
0.0
220
0.0
230
1.0
 70
     8
 71
     3
 72
    18
 73
    14
 74
     0
 42
0.000000001
 43
0.00000001
 40
0.0
 40
0.0
 40
0.0
 40
0.0
 40
0.1250000000000002
 40
0.1250000000000002
 40
0.2500000000000005
 40
0.2500000000000005
 40
0.3750000000000008
 40
0.3750000000000008
 40
0.500000000000001
 40
0.500000000000001
 40
0.7500000000000004
 40
0.7500000000000004
 40
1.0
 40
1.0
 40
1.0
 40
1.0
 10
-31.71714398319081
 20
6.891682501550485
 30
0.0
 10
-31.77642067906776
 20
6.768321818070879
 30
0.0
 10
-31.8254480437287
 20
6.63211249490795
 30
0.0
 10
-31.89870923434286
 20
6.333283192262646
 30
0.0
 10
-31.92250289945088
 20
6.169893097103401
 30
0.0
 10
-31.93972296884023
 20
5.83602192530781
 30
0.0
 10
-31.93338974283883
 20
5.660190992545203
 30
0.0
 10
-31.8925455068307
 20
5.314812822451671
 30
0.0
 10
-31.85860379775195
 20
5.144656089792603
 30
0.0
 10
-31.72032275947129
 20
4.641053091301533
 30
0.0
 10
-31.58587003567676
 20
4.334378091883657
 30
0.0
 10
-31.26088309175545
 20
3.766453436316109
 30
0.0
 10
-31.07363621309651
 20
3.511094838822506
 30
0.0
 10
-30.86693079725297
 20
3.274369546403765
 30
0.0
  0
SPLINE
  5
2C2
330
2A8
100
AcDbEntity
  8
0
  6
Continuous
 62
     7
370
    25
100
AcDbSpline
210
0.0
220
0.0
230
1.0
 70
     8
 71
     3
 72
    12
 73
     8
 74
     0
 42
0.000000001
 43
0.00000001
 40
0.0
 40
0.0
 40
0.0
 40
0.0
 40
0.5
 40
0.5
 40
0.75
 40
0.75
 40
1.0
 40
1.0
 40
1.0
 40
1.0
 10
-26.86039511123264
 20
0.7174523074227681
 30
0.0
 10
-27.64432957748366
 20
0.9652298176829697
 30
0.0
 10
-28.37674209143178
 20
1.297335861707334
 30
0.0
 10
-29.39036025248232
 20
1.937889155235446
 30
0.0
 10
-29.71510323336341
 20
2.176497742224699
 30
0.0
 10
-30.32123791552857
 20
2.693947603584525
 30
0.0
 10
-30.60424045874787
 20
2.973528627725257
 30
0.0
 10
-30.86693079725297
 20
3.274369546403769
 30
0.0
  0
SPLINE
  5
2C4
330
2A8
100
AcDbEntity
  8
0
  6
Continuous
 62
     7
370
    25
100
AcDbSpline
210
0.0
220
0.0
230
1.0
 70
     8
 71
     3
 72
    22
 73
    18
 74
     0
 42
0.000000001
 43
0.00000001
 40
0.0
 40
0.0
 40
0.0
 40
0.0
 40
0.0647842590801797
 40
0.1342193642073663
 40
0.204165837427371
 40
0.2715853338637474
 40
0.339466155266088
 40
0.4087895675620267
 40
0.4786058791928242
 40
0.5467182107179008
 40
0.615287392367591
 40
0.6852779056962258
 40
0.7557510858177132
 40
0.8164394522410857
 40
0.8774321802605167
 40
0.9385652801255195
 40
1.0
 40
1.0
 40
1.0
 40
1.0
 10
-34.85896471947967
 20
7.235434831778266
 30
0.0
 10
-34.89139748862125
 20
7.045081542422247
 30
0.0
 10
-34.95859136743491
 20
6.65070954782206
 30
0.0
 10
-34.936294296659
 20
6.046834638955488
 30
0.0
 10
-34.82106657378035
 20
5.437750782078372
 30
0.0
 10
-34.60730571708232
 20
4.839455038225911
 30
0.0
 10
-34.3010347909256
 20
4.253152174787007
 30
0.0
 10
-33.89740709103307
 20
3.674314309583194
 30
0.0
 10
-33.40163546254887
 20
3.113298268241409
 30
0.0
 10
-32.82101638526061
 20
2.576247317429274
 30
0.0
 10
-32.15833705949505
 20
2.063786049312462
 30
0.0
 10
-31.40951312903385
 20
1.574289809926676
 30
0.0
 10
-30.61765643066075
 20
1.134271368837064
 30
0.0
 10
-29.80331680990638
 20
0.7437371490920299
 30
0.0
 10
-28.9807807624853
 20
0.4007109577954232
 30
0.0
 10
-28.11430237541969
 20
0.0835171593774817
 30
0.0
 10
-27.50391300469006
 20
-0.1020332558102043
 30
0.0
 10
-27.19796728349798
 20
-0.1950367685093594
 30
0.0
  0
LWPOLYLINE
  5
2C5
330
2A8
100
AcDbEntity
  8
0
  6
Continuous
 62
     7
370
    25
100
AcDbPolyline
 90
        3
 70
   128
 43
0.0
 10
-33.1506651241
 20
12.6997535399
 10
-33.5985588405
 20
11.5903217164
 10
-33.6692259965
 20
11.3995242744
  0
LWPOLYLINE
  5
2C8
330
2A8
100
AcDbEntity
  8
0
  6
Continuous
 62
     7
370
    25
100
AcDbPolyline
 90
       73
 70
   128
 43
0.0
 10
38.2694495673
 20
-11.2906895169
 10
37.9989990538
 20
-9.7070827322
 10
37.6673745155
 20
-8.1183489807
 10
37.275090858
 20
-6.5269550515
 10
36.8227571708
 20
-4.9353718643
 10
36.3110757817
 20
-3.3460706326
 10
35.7408411663
 20
-1.7615190266
 10
35.1129387143
 20
-0.184177342
 10
34.428343355
 20
1.3835053202
 10
33.6881180433
 20
2.9390948563
 10
32.8934121096
 20
4.4801759394
 10
32.0454594747
 20
6.0043557693
 10
31.1455767348
 20
7.5092677884
 10
30.1951611163
 20
8.9925753553
 10
29.1956883071
 20
10.4519753736
 10
28.1487101648
 20
11.8852018675
 10
27.0558523076
 20
13.2900295004
 10
25.91881159
 20
14.6642770295
 10
24.739353468
 20
16.0058106935
 10
23.5193092584
 20
17.3125475248
 10
22.2605732948
 20
18.5824585841
 10
20.9650999866
 20
19.8135721107
 10
19.6349007847
 20
21.0039765839
 10
18.2720410576
 20
22.1518236908
 10
16.8786368853
 20
23.2553311964
 10
15.4568517735
 20
24.3127857109
 10
14.0088932941
 20
25.3225453497
 10
12.537009658
 20
26.283042283
 10
11.0434862238
 20
27.19278517
 10
9.5306419501
 20
28.0503614745
 10
8.0008257942
 20
28.8544396581
 10
6.4564130654
 20
29.6037712478
 10
4.8998017366
 20
30.297192774
 10
3.3334087214
 20
30.9336275777
 10
1.7596661209
 20
31.5120874817
 10
0.1810174481
 20
32.0316743249
 10
-1.4000861668
 20
32.4915813573
 10
-2.9811897817
 20
32.8910944921
 10
-4.5598384545
 20
33.2295934147
 10
-6.1335810549
 20
33.5065525459
 10
-7.6999740702
 20
33.7215418577
 10
-9.2565853989
 20
33.8742275415
 10
-10.8009981278
 20
33.9643725258
 10
-12.3308142837
 20
33.9918368445
 10
-13.8436585574
 20
33.9565778546
 10
-15.3371819915
 20
33.8586503017
 10
-16.8090656277
 20
33.6982062357
 10
-18.2570241071
 20
33.4754947743
 10
-19.6788092189
 20
33.1908617162
 10
-21.0722133911
 20
32.8447490045
 10
-22.4350731182
 20
32.4376940402
 10
-23.7652723202
 20
31.9703288478
 10
-25.0607456284
 20
31.4433790942
 10
-26.319481592
 20
30.8576629618
 10
-27.5395258016
 20
30.2140898781
 10
-28.7189839236
 20
29.5136591038
 10
-29.8560246412
 20
28.7574581811
 10
-30.9488824984
 20
27.9466612452
 10
-31.9958606407
 20
27.0825272013
 10
-32.9953334499
 20
26.1663977698
 10
-33.9457490684
 20
25.1996954033
 10
-34.8456318083
 20
24.1839210774
 10
-35.6935844431
 20
23.1206519608
 10
-36.4882903769
 20
22.0115389664
 10
-37.2285156886
 20
20.8583041875
 10
-37.9131110479
 20
19.6627382245
 10
-38.5410134999
 20
18.4266974041
 10
-39.1112481153
 20
17.1521008977
 10
-39.6229295044
 20
15.840927741
 10
-40.0752631915
 20
14.4952137615
 10
-40.467546849
 20
13.1170484174
 10
-40.7991713874
 20
11.7085715531
 10
-41.0696219009
 20
10.2719700775
  0
SPLINE
  5
2CB
330
2A8
100
AcDbEntity
  8
0
  6
Continuous
 62
     7
370
    25
100
AcDbSpline
210
0.0
220
0.0
230
1.0
 70
     8
 71
     3
 72
    10
 73
     6
 74
     0
 42
0.000000001
 43
0.00000001
 40
0.0
 40
0.0
 40
0.0
 40
0.0
 40
0.5
 40
0.5
 40
1.0
 40
1.0
 40
1.0
 40
1.0
 10
39.23925639011998
 20
-11.34025946789484
 30
0.0
 10
39.17691979079304
 20
-11.40110189985472
 30
0.0
 10
39.1090767319285
 20
-11.41027612591326
 30
0.0
 10
38.99932908656788
 20
-11.32640690791376
 30
0.0
 10
38.9577914185908
 20
-11.23472854720371
 30
0.0
 10
38.93989702886473
 20
-11.11676740475028
 30
0.0
  0
LWPOLYLINE
  5
2CE
330
2A8
100
AcDbEntity
  8
0
  6
Continuous
 62
     7
370
    25
100
AcDbPolyline
 90
       67
 70
   128
 43
0.0
 10
-35.7625465239
 20
8.8296207069
 10
-35.474641215
 20
10.1541087755
 10
-35.1258034145
 20
11.4489855513
 10
-34.716656918
 20
12.7119355214
 10
-34.2479333658
 20
13.9407002649
 10
-33.7204709345
 20
15.1330824913
 10
-33.135212838
 20
16.2869499697
 10
-32.4932056414
 20
17.4002393417
 10
-31.7955973889
 20
18.4709598109
 10
-31.0436355513
 20
19.4971967034
 10
-30.2386647948
 20
20.4771148912
 10
-29.382124577
 20
21.4089620739
 10
-28.4755465725
 20
22.2910719121
 10
-27.5205519339
 20
23.1218670074
 10
-26.5188483931
 20
23.8998617229
 10
-25.4722272073
 20
24.62366484
 10
-24.382559956
 20
25.2919820461
 10
-23.251795194
 20
25.9036182489
 10
-22.0819549673
 20
26.4574797141
 10
-20.8751311968
 20
26.9525760204
 10
-19.6334819381
 20
27.3880218312
 10
-18.3592275219
 20
27.7630384776
 10
-17.0546465838
 20
28.0769553507
 10
-15.7220719899
 20
28.329211101
 10
-14.3638866644
 20
28.5193546419
 10
-12.9825193293
 20
28.6470459566
 10
-11.5804401607
 20
28.7120567063
 10
-10.1601563719
 20
28.7142706379
 10
-8.7242077299
 20
28.6536837925
 10
-7.2751620136
 20
28.5304045121
 10
-5.8156104226
 20
28.3446532461
 10
-4.3481629429
 20
28.0967621569
 10
-2.87544368
 20
27.7871745261
 10
-1.4000861668
 20
27.4164439617
 10
0.0752713465
 20
26.9852334081
 10
1.5479906093
 20
26.4943139607
 10
3.015438089
 20
25.9445634871
 10
4.4749896801
 20
25.336965057
 10
5.9240353963
 20
24.6726051847
 10
7.3599840383
 20
23.9526718856
 10
8.7802678271
 20
23.1784525524
 10
10.1823469957
 20
22.3513316525
 10
11.5637143309
 20
21.4727882526
 10
12.9218996563
 20
20.5443933736
 10
14.2544742503
 20
19.5678071813
 10
15.5590551883
 20
18.5447760179
 10
16.8333096045
 20
17.4771292788
 10
18.0749588632
 20
16.3667761415
 10
19.2817826337
 20
15.2157021518
 10
20.4516228604
 20
14.0259656727
 10
21.5823876224
 20
12.7996942039
 10
22.6720548738
 20
11.5390805776
 10
23.7186760595
 20
10.2463790366
 10
24.7203796003
 20
8.9239012042
 10
25.6753742389
 20
7.5740119494
 10
26.5819522434
 20
6.1991251592
 10
27.4384924612
 20
4.8016994211
 10
28.2434632177
 20
3.3842336269
 10
28.9954250553
 20
1.9492625046
 10
29.6930333078
 20
0.4993520852
 10
30.3350405044
 20
-0.9629048857
 10
30.9202986009
 20
-2.4348935842
 10
31.4477610322
 20
-3.913981784
 10
31.9164845844
 20
-5.3975245635
 10
32.3256310809
 20
-6.8828690352
 10
32.6744688814
 20
-8.3673590899
 10
32.9623741903
 20
-9.8483401463
  0
SPLINE
  5
2CF
330
2A8
100
AcDbEntity
  8
0
  6
Continuous
 62
     7
370
    25
100
AcDbSpline
210
0.0
220
0.0
230
1.0
 70
     8
 71
     3
 72
    11
 73
     7
 74
     0
 42
0.000000001
 43
0.00000001
 40
0.0
 40
0.0
 40
0.0
 40
0.0
 40
0.0636425099077371
 40
0.5480676188175697
 40
0.9915840351666694
 40
1.0
 40
1.0
 40
1.0
 40
1.0
 10
40.01390292632946
 20
-10.791517568715
 30
0.0
 10
40.01717994208214
 20
-10.78991942871239
 30
0.0
 10
40.04540048559944
 20
-10.77615679133308
 30
0.0
 10
40.02076094369637
 20
-10.72908616628473
 30
0.0
 10
39.9734134516171
 20
-10.68194911907544
 30
0.0
 10
39.93992313610129
 20
-10.65745214468363
 30
0.0
 10
39.93929947351508
 20
-10.65699595768843
 30
0.0
  0
SPLINE
  5
2D0
330
2A8
100
AcDbEntity
  8
0
  6
Continuous
 62
     7
370
    25
100
AcDbSpline
210
0.0
220
0.0
230
1.0
 70
     8
 71
     3
 72
    12
 73
     8
 74
     0
 42
0.000000001
 43
0.00000001
 40
0.0
 40
0.0
 40
0.0
 40
0.0
 40
0.4999999999999968
 40
0.4999999999999968
 40
0.7499999999999983
 40
0.7499999999999983
 40
1.0
 40
1.0
 40
1.0
 40
1.0
 10
30.53613727457219
 20
-9.871390646626955
 30
0.0
 10
30.84726418930282
 20
-9.720430368184676
 30
0.0
 10
31.25942834776401
 20
-9.640713558517291
 30
0.0
 10
31.91002135924457
 20
-9.63753204065753
 30
0.0
 10
32.12867113883624
 20
-9.655256539163881
 30
0.0
 10
32.56072383212051
 20
-9.726790909898329
 30
0.0
 10
32.76767754058999
 20
-9.779473237510564
 30
0.0
 10
32.96237419032123
 20
-9.848340146312816
 30
0.0
  0
LWPOLYLINE
  5
2D1
330
2A8
100
AcDbEntity
  8
0
  6
Continuous
 62
     7
370
    25
100
AcDbPolyline
 90
       50
 70
   128
 43
0.0
 10
19.3012583313
 20
-7.5290664607
 10
18.7736179452
 20
-6.2244158254
 10
18.1889012109
 20
-4.9302214009
 10
17.5484643716
 20
-3.6494850551
 10
16.8537929124
 20
-2.3851774397
 10
16.1064981152
 20
-1.1402311006
 10
15.3083133208
 20
0.0824663249
 10
14.4610899089
 20
1.2800788053
 10
13.5667930035
 20
2.4498284936
 10
12.6274969153
 20
3.58900217
 10
11.6453803296
 20
4.6949575353
 10
10.6227212536
 20
5.76512934
 10
9.5618917323
 20
6.7970353339
 10
8.4653523463
 20
7.7882820241
 10
7.3356465052
 20
8.7365702262
 10
6.1753945474
 20
9.6397003975
 10
4.9872876629
 20
10.4955777391
 10
3.7740816507
 20
11.3022170541
 10
2.5385905269
 20
12.0577473527
 10
1.2836799978
 20
12.7604161919
 10
0.0122608126
 20
13.40859374
 10
-1.2727179878
 20
14.0007765574
 10
-2.5682759112
 20
14.5355910834
 10
-3.8714079271
 20
15.0117968224
 10
-5.1790914372
 20
15.4282892212
 10
-6.488293286
 20
15.7841022309
 10
-7.7959767961
 20
16.0784105477
 10
-9.0991088121
 20
16.310531527
 10
-10.3946667355
 20
16.4799267673
 10
-11.6796455359
 20
16.5862033583
 10
-12.9510647211
 20
16.6291147928
 10
-14.2059752502
 20
16.6085615383
 10
-15.441466374
 20
16.5245912678
 10
-16.6546723862
 20
16.3773987494
 10
-17.8427792707
 20
16.1673253941
 10
-19.0030312285
 20
15.8948584646
 10
-20.1327370696
 20
15.5606299444
 10
-21.2292764555
 20
15.1654150724
 10
-22.2901059769
 20
14.7101305446
 10
-23.3127650528
 20
14.1958323878
 10
-24.2948816385
 20
13.62371351
 10
-25.2341777268
 20
12.9951009339
 10
-26.1284746321
 20
12.3114527184
 10
-26.975698044
 20
11.5743545771
 10
-27.7738828384
 20
10.7855161998
 10
-28.5211776357
 20
9.9467672872
 10
-29.2158490948
 20
9.0600533071
 10
-29.8562859342
 20
8.1274309813
 10
-30.4410026684
 20
7.1510635156
 10
-30.9686430545
 20
6.1332155823
  0
LWPOLYLINE
  5
2D5
330
2A8
100
AcDbEntity
  8
0
  6
Continuous
 62
     7
370
    25
100
AcDbPolyline
 90
        3
 70
   128
 43
0.0
 10
13.8682312018
 20
-11.8098766596
 10
13.8712143275
 20
-11.8106566289
 10
13.8774957967
 20
-11.812100872
  0
SPLINE
  5
2D6
330
2A8
100
AcDbEntity
  8
0
  6
Continuous
 62
     7
370
    25
100
AcDbSpline
210
0.0
220
0.0
230
1.0
 70
     8
 71
     3
 72
    18
 73
    14
 74
     0
 42
0.000000001
 43
0.00000001
 40
0.0
 40
0.0
 40
0.0
 40
0.0
 40
0.1250000000000002
 40
0.1250000000000002
 40
0.2500000000000003
 40
0.2500000000000003
 40
0.3750000000000005
 40
0.3750000000000005
 40
0.5000000000000007
 40
0.5000000000000007
 40
0.7500000000000003
 40
0.7500000000000003
 40
1.0
 40
1.0
 40
1.0
 40
1.0
 10
19.30125833125567
 20
-7.52906646067519
 30
0.0
 10
19.36051026145478
 20
-7.614876140018268
 30
0.0
 10
19.40855583410391
 20
-7.708096540207224
 30
0.0
 10
19.45442226076295
 20
-7.905371107023395
 30
0.0
 10
19.44840563867038
 20
-8.00922905752955
 30
0.0
 10
19.37393355063903
 20
-8.188273971390274
 30
0.0
 10
19.30838906511169
 20
-8.263978038643298
 30
0.0
 10
19.15631929121979
 20
-8.385648579564299
 30
0.0
 10
19.06965028987837
 20
-8.433066217411369
 30
0.0
 10
18.80246769571412
 20
-8.54916645142617
 30
0.0
 10
18.61053594241841
 20
-8.595027300798131
 30
0.0
 10
18.22295364514811
 20
-8.658441343796092
 30
0.0
 10
18.02699967551297
 20
-8.6749478462491
 30
0.0
 10
17.83018283995718
 20
-8.68260815066093
 30
0.0
  0
SPLINE
  5
2D8
330
2A8
100
AcDbEntity
  8
0
  6
Continuous
 62
     7
370
    25
100
AcDbSpline
210
0.0
220
0.0
230
1.0
 70
     8
 71
     3
 72
    12
 73
     8
 74
     0
 42
0.000000001
 43
0.00000001
 40
0.0
 40
0.0
 40
0.0
 40
0.0
 40
0.500000000000001
 40
0.500000000000001
 40
0.7500000000000004
 40
0.7500000000000004
 40
1.0
 40
1.0
 40
1.0
 40
1.0
 10
13.59961266159905
 20
-8.72536236494956
 30
0.0
 10
14.27549791603817
 20
-8.909053494636957
 30
0.0
 10
14.9684951297026
 20
-9.004569154290404
 30
0.0
 10
16.03695242560261
 20
-8.998608317476013
 30
0.0
 10
16.39974006846073
 20
-8.97113486498692
 30
0.0
 10
17.11790409650697
 20
-8.865000053331046
 30
0.0
 10
17.47502955699437
 20
-8.786581098463524
 30
0.0
 10
17.83018283995719
 20
-8.68260815066093
 30
0.0
  0
LWPOLYLINE
  5
2DA
330
2A8
100
AcDbEntity
  8
0
  6
Continuous
 62
     7
370
    25
100
AcDbPolyline
 90
       23
 70
   128
 43
0.0
 10
34.8038081984
 20
8.349003682
 10
34.9184470804
 20
8.4513336659
 10
35.211129637
 20
8.6447884083
 10
35.5433801325
 20
8.7809888289
 10
35.9074108968
 20
8.8567425052
 10
36.2946893573
 20
8.8702738354
 10
36.6961380351
 20
8.8212656565
 10
37.1023473136
 20
8.7108666786
 10
37.5037959914
 20
8.5416645603
 10
37.8910744519
 20
8.3176252557
 10
38.2551052162
 20
8.0440000564
 10
38.5873557117
 20
7.727202505
 10
38.8800382683
 20
7.3746580676
 10
39.1262926551
 20
6.9946300872
 10
39.3203468779
 20
6.5960260973
 10
39.4576524702
 20
6.1881890378
 10
39.5349911052
 20
5.7806782636
 10
39.550550031
 20
5.3830454818
 10
39.5039645596
 20
5.0046108679
 10
39.3963266148
 20
4.6542446085
 10
39.2301591388
 20
4.3401589917
 10
39.0093569565
 20
4.0697159182
 10
38.9946771503
 20
4.0552154445
  0
SPLINE
  5
2DC
330
2A8
100
AcDbEntity
  8
0
  6
Continuous
 62
     7
370
    25
100
AcDbSpline
210
0.0
220
0.0
230
1.0
 70
     8
 71
     3
 72
    18
 73
    14
 74
     0
 42
0.000000001
 43
0.00000001
 40
0.0
 40
0.0
 40
0.0
 40
0.0
 40
0.2499999999999994
 40
0.2499999999999994
 40
0.4999999999999989
 40
0.4999999999999989
 40
0.6249999999999991
 40
0.6249999999999991
 40
0.7499999999999994
 40
0.7499999999999994
 40
0.8749999999999997
 40
0.8749999999999997
 40
1.0
 40
1.0
 40
1.0
 40
1.0
 10
-30.04433522188528
 20
4.328660031712641
 30
0.0
 10
-30.20143168397838
 20
4.432479263710376
 30
0.0
 10
-30.35395954081725
 20
4.54364947206214
 30
0.0
 10
-30.64525888843482
 20
4.791329349558888
 30
0.0
 10
-30.78493492469279
 20
4.927550558651414
 30
0.0
 10
-30.96554165410065
 20
5.164992257797349
 30
0.0
 10
-31.02178984715346
 20
5.251279216782659
 30
0.0
 10
-31.11195403616871
 20
5.437973757520167
 30
0.0
 10
-31.14635704221068
 20
5.54151495046366
 30
0.0
 10
-31.16707301941377
 20
5.746567787130154
 30
0.0
 10
-31.15145035599234
 20
5.848226699027995
 30
0.0
 10
-31.0806367479997
 20
6.013483439920284
 30
0.0
 10
-31.02795674371412
 20
6.079556842043758
 30
0.0
 10
-30.96864305450729
 20
6.133215582283983
 30
0.0
  0
SPLINE
  5
2DE
330
2A8
100
AcDbEntity
  8
0
  6
Continuous
 62
     7
370
    25
100
AcDbSpline
210
0.0
220
0.0
230
1.0
 70
     8
 71
     3
 72
    12
 73
     8
 74
     0
 42
0.000000001
 43
0.00000001
 40
0.0
 40
0.0
 40
0.0
 40
0.0
 40
0.2499999999999994
 40
0.2499999999999994
 40
0.4999999999999989
 40
0.4999999999999989
 40
1.0
 40
1.0
 40
1.0
 40
1.0
 10
-30.04433522188528
 20
4.328660031712641
 30
0.0
 10
-29.81918491398886
 20
4.066973002316352
 30
0.0
 10
-29.57584058831591
 20
3.825359226081603
 30
0.0
 10
-29.05305217478724
 20
3.38196013120004
 30
0.0
 10
-28.77201006246923
 20
3.179507546856978
 30
0.0
 10
-27.89570465114674
 20
2.645001877443661
 30
0.0
 10
-27.26289653633353
 20
2.380192057388703
 30
0.0
 10
-26.58701128189441
 20
2.19650092770131
 30
0.0
  0
LWPOLYLINE
  5
2E3
330
2A8
100
AcDbEntity
  8
0
  6
Continuous
 62
     8
370
    25
100
AcDbPolyline
 90
       62
 70
   128
 43
0.0
 10
30.5361372746
 20
-9.8713906466
 10
30.2362970304
 20
-8.4314973083
 10
29.8762399927
 20
-6.9890474009
 10
29.4566372638
 20
-5.5467294754
 10
28.9782709322
 20
-4.1072318367
 10
28.4420326144
 20
-2.6732375331
 10
27.8489217934
 20
-1.2474193553
 10
27.2000439554
 20
0.1675651453
 10
26.4966085298
 20
1.5690786099
 10
25.7399266344
 20
2.9545087881
 10
24.9314086323
 20
4.3212734067
 10
24.0725615024
 20
5.6668249831
 10
23.1649860312
 20
6.988655573
 10
22.2103738289
 20
8.2843014451
 10
21.2105041762
 20
9.5513476734
 10
20.1672407086
 20
10.7874326379
 10
19.0825279419
 20
11.990252427
 10
17.9583876487
 20
13.1575651309
 10
16.7969150895
 20
14.2871950211
 10
15.6002751079
 20
15.3770366049
 10
14.3706980948
 20
16.4250585504
 10
13.1104758322
 20
17.4293074723
 10
11.8219572208
 20
18.3879115731
 10
10.5075439023
 20
19.2990841313
 10
9.1696857832
 20
20.1611268323
 10
7.8108764679
 20
20.9724329335
 10
6.4336486116
 20
21.7314902592
 10
5.0405691993
 20
22.4368840189
 10
3.6342347612
 20
23.0872994446
 10
2.2172665335
 20
23.6815242412
 10
0.7923055724
 20
24.218450846
 10
-0.6379921685
 20
24.6970784933
 10
-2.0709607884
 20
25.1165150793
 10
-3.5039294082
 20
25.4759788254
 10
-4.9342271491
 20
25.774799735
 10
-6.3591881102
 20
26.0124208422
 10
-7.7761563379
 20
26.1883992502
 10
-9.182490776
 20
26.3024069569
 10
-10.5755701884
 20
26.3542314655
 10
-11.9527980447
 20
26.3437761817
 10
-13.3116073599
 20
26.2710605927
 10
-14.6494654791
 20
26.1362202316
 10
-15.9638787975
 20
25.9395064244
 10
-17.2523974089
 20
25.6812858216
 10
-18.5126196716
 20
25.362039715
 10
-19.7421966846
 20
24.9823631405
 10
-20.9388366663
 20
24.542963769
 10
-22.1003092254
 20
24.0446605873
 10
-23.2244495186
 20
23.4883823719
 10
-24.3091622853
 20
22.8751659576
 10
-25.352425753
 20
22.2061543052
 10
-26.3522954056
 20
21.4825943709
 10
-27.306907608
 20
20.7058347823
 10
-28.2144830792
 20
19.8773233246
 10
-29.0733302091
 20
18.9986042422
 10
-29.8818482112
 20
18.0713153606
 10
-30.6385301065
 20
17.0971850333
 10
-31.3419655322
 20
16.0780289205
 10
-31.9908433701
 20
15.0157466051
 10
-32.5839541911
 20
13.912318052
 10
-33.1201925089
 20
12.7697999175
 10
-33.1506651241
 20
12.6997535399
  0
LWPOLYLINE
  5
2E5
330
2A8
100
AcDbEntity
  8
0
  6
Continuous
 62
     8
370
    25
100
AcDbPolyline
 90
       57
 70
   128
 43
0.0
 10
-29.0680750986
 20
29.957795304
 10
-28.7866501841
 20
30.1371849471
 10
-27.5941961735
 20
30.8453334353
 10
-26.3607088764
 20
31.4959977451
 10
-25.0881034992
 20
32.0881676053
 10
-23.7783559862
 20
32.6209235678
 10
-22.4334999512
 20
33.0934384352
 10
-21.0556235202
 20
33.5049785448
 10
-19.6468660894
 20
33.854904908
 10
-18.2094150029
 20
34.1426742025
 10
-16.745502157
 20
34.3678396157
 10
-15.2574005344
 20
34.5300515386
 10
-13.7474206751
 20
34.6290581087
 10
-12.2179070891
 20
34.6647056007
 10
-10.6712346158
 20
34.6369386657
 10
-9.1098047369
 20
34.5458004167
 10
-7.5360418474
 20
34.3914323619
 10
-5.9523894917
 20
34.1740741849
 10
-4.3613065693
 20
33.8940633727
 10
-2.7652635168
 20
33.5518346913
 10
-1.1667384723
 20
33.1479195111
 10
0.4317865721
 20
32.6829449816
 10
2.0278296246
 20
32.1576330578
 10
3.6189125471
 20
31.572799379
 10
5.2025649028
 20
30.9293520025
 10
6.7763277922
 20
30.2282899939
 10
8.3377576711
 20
29.4707018755
 10
9.8844301444
 20
28.6577639364
 10
11.4139437304
 20
27.7907384061
 10
12.9239235897
 20
26.8709714944
 10
14.4120252124
 20
25.8998913018
 10
15.8759380583
 20
24.8790056012
 10
17.3133891448
 20
23.8098994978
 10
18.7221465756
 20
22.6942329673
 10
20.1000230065
 20
21.5337382785
 10
21.4448790415
 20
20.330217304
 10
22.7546265546
 20
19.0855387223
 10
24.0272319317
 20
17.8016351164
 10
25.2607192289
 20
16.4804999728
 10
26.4531732395
 20
15.1241845867
 10
27.6027424686
 20
13.734794877
 10
28.7076420073
 20
12.3144881159
 10
29.7661563043
 20
10.8654695801
 10
30.7766418295
 20
9.3899891264
 10
31.7375296262
 20
7.8903376981
 10
32.6473277465
 20
6.3688437685
 10
33.5046235685
 20
4.8278697252
 10
34.3080859894
 20
3.2698082019
 10
35.0564674921
 20
1.6970783637
 10
35.7486060825
 20
0.1121221511
 10
36.3834270932
 20
-1.4825995121
 10
36.9599448529
 20
-3.0846105395
 10
37.4772642161
 20
-4.6914235264
 10
37.9345819533
 20
-6.3005436126
 10
38.331187998
 20
-7.9094723553
 10
38.6664665496
 20
-9.5157116093
 10
38.9398970289
 20
-11.1167674048
  0
LWPOLYLINE
  5
2E6
330
2A8
100
AcDbEntity
  8
0
  6
Continuous
 62
     8
370
    25
100
AcDbPolyline
 90
       57
 70
   128
 43
0.0
 10
39.9392994735
 20
-10.6569959577
 10
39.6851386989
 20
-9.0673989868
 10
39.3697333271
 20
-7.4719701984
 10
38.9935672662
 20
-5.8731573656
 10
38.5572176458
 20
-4.2734134533
 10
38.0613539314
 20
-2.675192855
 10
37.5067368979
 20
-1.080947627
 10
36.8942174615
 20
0.5068762736
 10
36.2247353752
 20
2.0858427415
 10
35.499317786
 20
3.6535292608
 10
34.7190776596
 20
5.207530622
 10
33.885212073
 20
6.7454626117
 10
32.9990003771
 20
8.2649656708
 10
32.0618022347
 20
9.7637085147
 10
31.0750555342
 20
11.2393917101
 10
30.0402741831
 20
12.6897512026
 10
28.959045786
 20
14.1125617904
 10
27.8330292083
 20
15.5056405387
 10
26.6639520313
 20
16.8668501282
 10
25.4536079017
 20
18.1941021346
 10
24.2038537796
 20
19.4853602331
 10
22.9166070897
 20
20.7386433217
 10
21.5938427793
 20
21.9520285617
 10
20.2375902881
 20
23.1236543272
 10
18.8499304349
 20
24.2517230611
 10
17.4329922251
 20
25.3345040338
 10
15.9889495841
 20
26.3703359978
 10
14.5200180218
 20
27.3576297366
 10
13.0284512342
 20
28.2948705034
 10
11.5165376446
 20
29.1806203445
 10
9.9865968937
 20
30.0135203057
 10
8.4409762801
 20
30.7922925173
 10
6.8820471589
 20
31.5157421548
 10
5.3122013039
 20
32.1827592718
 10
3.7338472376
 20
32.7923205028
 10
2.1494065364
 20
33.3434906338
 10
0.5613101148
 20
33.8354240367
 10
-1.0280055037
 20
34.2673659669
 10
-2.6161019253
 20
34.6386537212
 10
-4.2005426266
 20
34.9487176545
 10
-5.7788966928
 20
35.1970820538
 10
-7.3487425478
 20
35.3833658682
 10
-8.907671669
 20
35.5072832933
 10
-10.4532922827
 20
35.56864421
 10
-11.9832330335
 20
35.5673544756
 10
-13.4951466231
 20
35.5034160691
 10
-14.9867134108
 20
35.3769270872
 10
-16.455644973
 20
35.1880815948
 10
-17.8996876141
 20
34.9371693264
 10
-19.3166258238
 20
34.6245752419
 10
-20.704285677
 20
34.2507789362
 10
-22.0605381682
 20
33.816353903
 10
-23.3833024787
 20
33.3219666554
 10
-24.6705491686
 20
32.7683757026
 10
-25.9203032906
 20
32.1564303869
 10
-27.1306474202
 20
31.4870695802
 10
-27.7792765451
 20
31.0945580327
  0
SPLINE
  5
2E7
330
2A8
100
AcDbEntity
  8
0
  6
Continuous
 62
     8
370
    25
100
AcDbSpline
210
0.0
220
0.0
230
1.0
 70
     8
 71
     3
 72
    11
 73
     7
 74
     0
 42
0.000000001
 43
0.00000001
 40
0.0
 40
0.0
 40
0.0
 40
0.0
 40
0.2713238088346181
 40
0.5942847564230838
 40
0.9116003068807943
 40
1.0
 40
1.0
 40
1.0
 40
1.0
 10
-35.76254652390161
 20
8.829620706891449
 30
0.0
 10
-35.59840075830399
 20
8.790450041150072
 30
0.0
 10
-35.23886973614617
 20
8.704653923039281
 30
0.0
 10
-34.85864743536329
 20
8.475130698800651
 30
0.0
 10
-34.65128014143043
 20
8.25273053688762
 30
0.0
 10
-34.66600598926232
 20
8.11386775753893
 30
0.0
 10
-34.66921454612546
 20
8.083611494619447
 30
0.0
  0
LWPOLYLINE
  5
2E9
330
2A8
100
AcDbEntity
  8
0
  6
Continuous
 62
     8
370
    25
100
AcDbPolyline
 90
        6
 70
   128
 43
0.0
 10
13.6638010045
 20
-11.3003898274
 10
13.6727684256
 20
-11.4588623943
 10
13.6993260757
 20
-11.5937399936
 10
13.7424533594
 20
-11.6998393549
 10
13.8004929192
 20
-11.7730831391
 10
13.8682312018
 20
-11.8098766596
  0
SPLINE
  5
2EB
330
2A8
100
AcDbEntity
  8
0
  6
Continuous
 62
     8
370
    25
100
AcDbSpline
210
0.0
220
0.0
230
1.0
 70
     8
 71
     3
 72
    10
 73
     6
 74
     0
 42
0.000000001
 43
0.00000001
 40
0.0
 40
0.0
 40
0.0
 40
0.0
 40
0.3498893482755819
 40
0.7005770342328427
 40
1.0
 40
1.0
 40
1.0
 40
1.0
 10
38.26944956734089
 20
-11.29068951691694
 30
0.0
 10
38.28245539451775
 20
-11.38423777218571
 30
0.0
 10
38.30849672408723
 20
-11.5715477304821
 30
0.0
 10
38.40330860057284
 20
-11.75494815827046
 30
0.0
 10
38.48971901399359
 20
-11.79124641626524
 30
0.0
 10
38.52951725786327
 20
-11.8079643888629
 30
0.0
  0
LWPOLYLINE
  5
2EC
330
2A8
100
AcDbEntity
  8
0
  6
Continuous
 62
     8
370
    25
100
AcDbPolyline
 90
        6
 70
   128
 43
0.0
 10
32.9623741903
 20
-9.8483401463
 10
32.9713416114
 20
-10.0068127132
 10
32.9978992615
 20
-10.1416903125
 10
33.0410265452
 20
-10.2477896738
 10
33.099066105
 20
-10.321033458
 10
33.1668043876
 20
-10.3578269785
  0
LWPOLYLINE
  5
2ED
330
2A8
100
AcDbEntity
  8
0
  6
Continuous
 62
     8
370
    25
100
AcDbPolyline
 90
        6
 70
   128
 43
0.0
 10
-27.1979672835
 20
-0.1950367685
 10
-27.1889998625
 20
-0.3535093354
 10
-27.1624422123
 20
-0.4883869347
 10
-27.1193149287
 20
-0.594486296
 10
-27.0612753688
 20
-0.6677300802
 10
-26.9935370862
 20
-0.7045236007
  0
LWPOLYLINE
  5
2EE
330
2A8
100
AcDbEntity
  8
0
  6
Continuous
 62
     8
370
    25
100
AcDbPolyline
 90
        6
 70
   128
 43
0.0
 10
-35.7625465239
 20
8.8296207069
 10
-35.7535791029
 20
8.67114814
 10
-35.7270214527
 20
8.5362705407
 10
-35.6838941691
 20
8.4301711794
 10
-35.6258546092
 20
8.3569273952
 10
-35.5599980989
 20
8.3206576531
  0
SPLINE
  5
2EF
330
2A8
100
AcDbEntity
  8
0
  6
Continuous
 62
     8
370
    25
100
AcDbSpline
210
0.0
220
0.0
230
1.0
 70
     8
 71
     3
 72
    11
 73
     7
 74
     0
 42
0.000000001
 43
0.00000001
 40
0.0
 40
0.0
 40
0.0
 40
0.0
 40
0.238567062738662
 40
0.5837749071991308
 40
0.9266139007578502
 40
1.0
 40
1.0
 40
1.0
 40
1.0
 10
-41.06962190092128
 20
10.27197007749557
 30
0.0
 10
-41.07244107838891
 20
10.20936763785915
 30
0.0
 10
-41.07933962106974
 20
10.05617912570806
 30
0.0
 10
-41.03811509101889
 20
9.882928434069946
 30
0.0
 10
-40.97827820341176
 20
9.782980730496874
 30
0.0
 10
-40.92611307751962
 20
9.785742338299332
 30
0.0
 10
-40.91691566205402
 20
9.786229247012345
 30
0.0
  0
LINE
  5
2F0
330
2A8
100
AcDbEntity
  8
0
  6
Continuous
 62
     7
370
    25
100
AcDbLine
 10
-32.2782159668
 20
27.5655345373
 30
0.0
 11
-33.2116067447
 21
26.6545165237
 31
0.0
  0
LINE
  5
2F1
330
2A8
100
AcDbEntity
  8
0
  6
Continuous
 62
     7
370
    25
100
AcDbLine
 10
36.524764697
 20
1.6445051714
 30
0.0
 11
38.9946771503
 21
4.0552154445
 31
0.0
  0
LINE
  5
2F2
330
2A8
100
AcDbEntity
  8
0
  6
Continuous
 62
     7
370
    25
100
AcDbLine
 10
34.8038081984
 20
8.349003682
 30
0.0
 11
33.7075071006
 21
7.2789802019
 31
0.0
  0
LINE
  5
2F3
330
2A8
100
AcDbEntity
  8
0
  6
Continuous
 62
     7
370
    25
100
AcDbLine
 10
33.1668043876
 20
-10.3578269785
 30
0.0
 11
38.5278979753
 21
-11.8148573413
 31
0.0
  0
LINE
  5
2F4
330
2A8
100
AcDbEntity
  8
0
  6
Continuous
 62
     7
370
    25
100
AcDbLine
 10
-26.9935370862
 20
-0.7045236007
 30
0.0
 11
13.8682312018
 21
-11.8098766596
 31
0.0
  0
LINE
  5
2F5
330
2A8
100
AcDbEntity
  8
0
  6
Continuous
 62
     7
370
    25
100
AcDbLine
 10
39.1506762782
 20
-11.6393248794
 30
0.0
 11
40.0163298105
 21
-10.7944204941
 31
0.0
  0
LINE
  5
2F6
330
2A8
100
AcDbEntity
  8
0
  6
Continuous
 62
     7
370
    25
100
AcDbLine
 10
-40.9190235055
 20
9.7771135756
 30
0.0
 11
-35.5581163266
 21
8.3201338747
 31
0.0
  0
LINE
  5
2F7
330
2A8
100
AcDbEntity
  8
0
  6
Continuous
 62
     7
370
    25
100
AcDbLine
 10
39.2392563901
 20
-11.3402594679
 30
0.0
 11
39.9392994735
 21
-10.6569959577
 31
0.0
  0
LINE
  5
2F8
330
2A8
100
AcDbEntity
  8
0
  6
Continuous
 62
     7
370
    25
100
AcDbLine
 10
-41.0696219009
 20
10.2719700775
 30
0.0
 11
-35.7625465239
 21
8.8296207069
 31
0.0
  0
LINE
  5
2F9
330
2A8
100
AcDbEntity
  8
0
  6
Continuous
 62
     7
370
    25
100
AcDbLine
 10
32.9623741903
 20
-9.8483401463
 30
0.0
 11
38.2694495673
 21
-11.2906895169
 31
0.0
  0
LINE
  5
2FA
330
2A8
100
AcDbEntity
  8
0
  6
Continuous
 62
     7
370
    25
100
AcDbLine
 10
-30.9686430545
 20
6.1332155823
 30
0.0
 11
19.3012583313
 21
-7.5290664607
 31
0.0
  0
LINE
  5
2FB
330
2A8
100
AcDbEntity
  8
0
  6
Continuous
 62
     7
370
    25
100
AcDbLine
 10
17.83018284
 20
-8.6826081507
 30
0.0
 11
-30.0443352219
 21
4.3286600317
 31
0.0
  0
LINE
  5
2FC
330
2A8
100
AcDbEntity
  8
0
  6
Continuous
 62
     7
370
    25
100
AcDbLine
 10
-26.5870112819
 20
2.1965009277
 30
0.0
 11
13.5996126616
 21
-8.7253623649
 31
0.0
  0
LINE
  5
2FD
330
2A8
100
AcDbEntity
  8
0
  6
Continuous
 62
     7
370
    25
100
AcDbLine
 10
13.3262288323
 20
-10.2044109852
 30
0.0
 11
-26.8603951112
 21
0.7174523074
 31
0.0
  0
LINE
  5
2FE
330
2A8
100
AcDbEntity
  8
0
  6
Continuous
 62
     7
370
    25
100
AcDbLine
 10
-27.1979672835
 20
-0.1950367685
 30
0.0
 11
13.6638010045
 21
-11.3003898274
 31
0.0
  0
ARC
  5
2FF
330
2A8
100
AcDbEntity
  8
0
  6
Continuous
 62
     7
370
    25
100
AcDbCircle
 10
-10.9936628601
 20
-18.2951519955
 30
0.0
 40
25.63039644683868
100
AcDbArc
 50
15.8374343045
 51
18.4012511205
  0
ARC
  5
300
330
2A8
100
AcDbEntity
  8
0
  6
Continuous
 62
     7
370
    25
100
AcDbCircle
 10
-12.3553140509
 20
-5.1673385428
 30
0.0
 40
15.65337471338054
100
AcDbArc
 50
157.9173359208
 51
161.4791056066
  0
ARC
  5
301
330
2A8
100
AcDbEntity
  8
0
  6
Continuous
 62
     7
370
    25
100
AcDbCircle
 10
-14.6922294924
 20
7.6800981455
 30
0.0
 40
26.51340656308544
100
AcDbArc
 50
122.8342396248
 51
146.011001596
  0
ARC
  5
302
330
2A8
100
AcDbEntity
  8
0
  6
Continuous
 62
     7
370
    25
100
AcDbCircle
 10
38.3947780272
 20
-10.3946090809
 30
0.0
 40
0.904802393181223
100
AcDbArc
 50
262.0380907722
 51
307.0472184622
  0
ARC
  5
303
330
2A8
100
AcDbEntity
  8
0
  6
Continuous
 62
     7
370
    25
100
AcDbCircle
 10
-13.7030315297
 20
8.5173762462
 30
0.0
 40
26.60582288061467
100
AcDbArc
 50
121.9423920569
 51
134.2797562298
  0
ARC
  5
304
330
2A8
100
AcDbEntity
  8
0
  6
Continuous
 62
     7
370
    25
100
AcDbCircle
 10
-29.6273603386
 20
8.2054407149
 30
0.0
 40
2.468431956591207
100
AcDbArc
 50
212.1558309114
 51
237.0863548119
  0
ARC
  5
305
330
2A8
100
AcDbEntity
  8
0
  6
Continuous
 62
     7
370
    25
100
AcDbCircle
 10
18.5890066458
 20
-2.4672225777
 30
0.0
 40
5.111708712283638
100
AcDbArc
 50
278.009500424
 51
290.2814636442
  0
ARC
  5
306
330
2A8
100
AcDbEntity
  8
0
  6
Continuous
 62
     7
370
    25
100
AcDbCircle
 10
25.2650824826
 20
-7.2674821263
 30
0.0
 40
7.56837593945259
100
AcDbArc
 50
190.7765240005
 51
201.7373815036
  0
ARC
  5
307
330
2A8
100
AcDbEntity
  8
0
  6
Continuous
 62
     7
370
    25
100
AcDbCircle
 10
17.8898976547
 20
-10.283158558
 30
0.0
 40
4.564348179195039
100
AcDbArc
 50
160.0441146521
 51
179.0114410091
  0
ARC
  5
308
330
2A8
100
AcDbEntity
  8
0
  6
Continuous
 62
     7
370
    25
100
AcDbCircle
 10
-22.2967262888
 20
0.6387047347
 30
0.0
 40
4.56434817919487
100
AcDbArc
 50
160.0441146521
 51
179.0114410091
  0
ARC
  5
309
330
2A8
100
AcDbEntity
  8
0
  6
Continuous
 62
     7
370
    25
100
AcDbCircle
 10
-27.7086267888
 20
1.6582011632
 30
0.0
 40
3.547799945402834
100
AcDbArc
 50
131.174463141
 51
152.9002506018
  0
ARC
  5
30A
330
2A8
100
AcDbEntity
  8
0
  6
Continuous
 62
     8
370
    25
100
AcDbCircle
 10
-40.9903573576
 20
10.6024840153
 30
0.0
 40
0.3398857615485567
100
AcDbArc
 50
183.5789691349
 51
256.513905431
  0
ARC
  5
30B
330
2A8
100
AcDbEntity
  8
0
  6
Continuous
 62
     8
370
    25
100
AcDbCircle
 10
29.9380022173
 20
-10.0476312961
 30
0.0
 40
0.6235593902960401
100
AcDbArc
 50
305.0412065095
 51
16.4176230458
  0
ARC
  5
30C
330
2A8
100
AcDbEntity
  8
0
  6
Continuous
 62
     8
370
    25
100
AcDbCircle
 10
38.9041520744
 20
-11.4036373794
 30
0.0
 40
0.3410449561408355
100
AcDbArc
 50
316.2085641213
 51
10.7097881791
  0
VIEWPORT
  5
380
330
2A8
100
AcDbEntity
  8
0
100
AcDbViewport
 10
0.0
 20
0.0
 30
0.0
 40
205.6
 41
156.0
 68
     1
 69
     1
 12
0.0
 22
-20.0
 13
0.0
 23
0.0
 14
10.0
 24
10.0
 15
10.0
 25
10.0
 16
0.0
 26
0.0
 36
1.0
 17
0.0
 27
0.0
 37
0.0
 42
50.0
 43
0.0
 44
0.0
 45
70.3156390604
 50
0.0
 51
0.0
 72
   100
 90
   557152
  1

281
     0
 71
     1
 74
     0
110
0.0
120
0.0
130
0.0
111
1.0
121
0.0
131
0.0
112
0.0
122
1.0
132
0.0
 79
     0
146
0.0
  0
ENDBLK
  5
2AB
330
2A8
100
AcDbEntity
  8
0
100
AcDbBlockEnd
  0
BLOCK
  5
30F
330
30D
100
AcDbEntity
  8
0
100
AcDbBlockBegin
  2
*Paper_Space6
 70
     0
 10
0.0
 20
0.0
 30
0.0
  3
*Paper_Space6
  1

  0
SPLINE
  5
311
330
30D
100
AcDbEntity
  8
0
  6
Continuous
 62
     7
370
    25
100
AcDbSpline
210
0.0
220
0.0
230
1.0
 70
     8
 71
     3
 72
     9
 73
     5
 74
     0
 42
0.000000001
 43
0.00000001
 40
0.0
 40
0.0
 40
0.0
 40
0.0
 40
0.1401815505656321
 40
0.9999999999999999
 40
0.9999999999999999
 40
0.9999999999999999
 40
0.9999999999999999
 10
-35.95091262706224
 20
4.585487630813553
 30
0.0
 10
-35.95677279975697
 20
4.560378683149995
 30
0.0
 10
-35.99857696493473
 20
4.381261334524289
 30
0.0
 10
-36.03064226322824
 20
4.199693995396929
 30
0.0
 10
-36.05821259828761
 20
4.043579047400516
 30
0.0
  0
SPLINE
  5
312
330
30D
100
AcDbEntity
  8
0
  6
Continuous
 62
     7
370
    25
100
AcDbSpline
210
0.0
220
0.0
230
1.0
 70
     8
 71
     3
 72
    19
 73
    15
 74
     0
 42
0.000000001
 43
0.00000001
 40
0.0
 40
0.0
 40
0.0
 40
0.0
 40
0.00244351137879
 40
0.1011362853000692
 40
0.1998355046025124
 40
0.2985418350000523
 40
0.3972558258610386
 40
0.4959779076836484
 40
0.5947083926916036
 40
0.6934474782660596
 40
0.792195252843702
 40
0.8909517038512469
 40
0.9845333705190109
 40
1.0
 40
1.0
 40
1.0
 40
1.0
 10
-38.00039326188354
 20
20.07461730325792
 30
0.0
 10
-38.00719635690584
 20
20.06415791966993
 30
0.0
 10
-38.28877464832337
 20
19.63124681812992
 30
0.0
 10
-38.79858917226791
 20
18.74239181710056
 30
0.0
 10
-39.52442908412849
 20
17.40736300531091
 30
0.0
 10
-40.19133337082729
 20
16.03544918258056
 30
0.0
 10
-40.80600560340891
 20
14.6340506666908
 30
0.0
 10
-41.36555679118871
 20
13.20360184502002
 30
0.0
 10
-41.86977177804563
 20
11.74645766982961
 30
0.0
 10
-42.31777925620357
 20
10.26449837645253
 30
0.0
 10
-42.70911141276936
 20
8.759807577102228
 30
0.0
 10
-43.03696431571152
 20
7.26102797169223
 30
0.0
 10
-43.23237535089399
 20
6.178638269556687
 30
0.0
 10
-43.32215276519444
 20
5.60707841852673
 30
0.0
 10
-43.33488615078399
 20
5.526012461934149
 30
0.0
  0
SPLINE
  5
314
330
30D
100
AcDbEntity
  8
0
  6
Continuous
 62
     7
370
    25
100
AcDbSpline
210
0.0
220
0.0
230
1.0
 70
     8
 71
     3
 72
    60
 73
    56
 74
     0
 42
0.000000001
 43
0.00000001
 40
0.0
 40
0.0
 40
0.0
 40
0.0
 40
0.0166792391872828
 40
0.0356394899310598
 40
0.0546006141873181
 40
0.0735625328824906
 40
0.092525170550547
 40
0.1114884557963901
 40
0.1304523216114928
 40
0.1494167055414317
 40
0.1683815497221389
 40
0.1873468008014725
 40
0.2063124097619241
 40
0.225278331659093
 40
0.2442445252894571
 40
0.2632109527994179
 40
0.2821775792463811
 40
0.3011443721212707
 40
0.3201113008406752
 40
0.3390783362159606
 40
0.3580454499056169
 40
0.3770126056494373
 40
0.3959797738324795
 40
0.414946924934647
 40
0.433914027853789
 40
0.4528810493620778
 40
0.4718479535813647
 40
0.4908147014845466
 40
0.5097812504311631
 40
0.5287475537465044
 40
0.547713560355008
 40
0.5666792144799403
 40
0.5856444554230466
 40
0.6046092174390179
 40
0.6235734297209946
 40
0.6425370165142588
 40
0.6614998973758155
 40
0.6804619875974491
 40
0.6994231988091708
 40
0.7183834397780265
 40
0.7373426174145058
 40
0.7563006379944393
 40
0.7752574085986738
 40
0.7942128387656509
 40
0.8131668423433229
 40
0.8321193395167954
 40
0.8510702589769484
 40
0.8700195401835049
 40
0.8889671356639411
 40
0.9079130132785003
 40
0.9268571583715854
 40
0.9457995757225934
 40
0.9647402912051998
 40
0.9836793530645077
 40
1.0
 40
1.0
 40
1.0
 40
1.0
 10
42.36676564433681
 20
-5.096963956233068
 30
0.0
 10
42.30011111712771
 20
-4.623483846020647
 30
0.0
 10
42.15768655419325
 20
-3.611771655134936
 30
0.0
 10
41.86843973560972
 20
-2.064706279816583
 30
0.0
 10
41.51502395129638
 20
-0.4579074794211838
 30
0.0
 10
41.10296616493931
 20
1.141688815694344
 30
0.0
 10
40.63471736083955
 20
2.731922836904354
 30
0.0
 10
40.11041489236567
 20
4.310604423823288
 30
0.0
 10
39.53091368173203
 20
5.875571219218478
 30
0.0
 10
38.89697265848847
 20
7.424676839657779
 30
0.0
 10
38.20947133156885
 20
8.955797763625307
 30
0.0
 10
37.46935020128714
 20
10.46683515422872
 30
0.0
 10
36.67762505280727
 20
11.95571798643239
 30
0.0
 10
35.83538133680363
 20
13.42040576901466
 30
0.0
 10
34.94377377356636
 20
14.85889131653335
 30
0.0
 10
34.00402444807398
 20
16.26920344643122
 30
0.0
 10
33.01742120296603
 20
17.6494096318505
 30
0.0
 10
31.98531584809657
 20
18.9976185990485
 30
0.0
 10
30.90912231847225
 20
20.31198286945807
 30
0.0
 10
29.79031474811239
 20
21.59070124340907
 30
0.0
 10
28.63042563861961
 20
22.83202104437387
 30
0.0
 10
27.43104367335923
 20
24.03424065645083
 30
0.0
 10
26.19381155720312
 20
25.19571184721769
 30
0.0
 10
24.92042361842933
 20
26.31484214831987
 30
0.0
 10
23.61262367626309
 20
27.39009685667076
 30
0.0
 10
22.2722027280972
 20
28.42000109972447
 30
0.0
 10
20.90099655201431
 20
29.40314185075083
 30
0.0
 10
19.5008832504884
 20
30.33816986829923
 30
0.0
 10
18.07378073746692
 20
31.22380155775457
 30
0.0
 10
16.62164417097029
 20
32.05882075289652
 30
0.0
 10
15.14646333327479
 20
32.84208041535414
 30
0.0
 10
13.65025996065977
 20
33.57250424979873
 30
0.0
 10
12.13508502462549
 20
34.24908823262674
 30
0.0
 10
10.60301596641822
 20
34.87090205175229
 30
0.0
 10
9.056153886657777
 20
35.4370904549461
 30
0.0
 10
7.496620691855831
 20
35.94687450393248
 30
0.0
 10
5.926556199667051
 20
36.39955273117697
 30
0.0
 10
4.348115204829603
 20
36.79450219600145
 30
0.0
 10
2.763464508001112
 20
37.13117943626659
 30
0.0
 10
1.174779909901635
 20
37.40912131174012
 30
0.0
 10
-0.4157568259320064
 20
37.62794573410539
 30
0.0
 10
-2.005961039525877
 20
37.7873522814045
 30
0.0
 10
-3.593648260898485
 20
37.88712268288204
 30
0.0
 10
-5.176637329362117
 20
37.92712120354953
 30
0.0
 10
-6.752753472586537
 20
37.90729479588394
 30
0.0
 10
-8.319831588276555
 20
37.82767349099534
 30
0.0
 10
-9.875718787223876
 20
37.68836924608352
 30
0.0
 10
-11.41827966989991
 20
37.48957988474115
 30
0.0
 10
-12.94539133486524
 20
37.23157335222893
 30
0.0
 10
-14.45497658626845
 20
36.91474473857292
 30
0.0
 10
-15.94489442975769
 20
36.53940107727126
 30
0.0
 10
-17.41336287817637
 20
36.10656128127259
 30
0.0
 10
-18.85739514075865
 20
35.61496738768301
 30
0.0
 10
-20.21318996316724
 20
35.09722959362905
 30
0.0
 10
-21.0731389367045
 20
34.71633247252174
 30
0.0
 10
-21.47118316507065
 20
34.54002677843572
 30
0.0
  0
SPLINE
  5
315
330
30D
100
AcDbEntity
  8
0
  6
Continuous
 62
     7
370
    25
100
AcDbSpline
210
0.0
220
0.0
230
1.0
 70
     8
 71
     3
 72
    27
 73
    23
 74
     0
 42
0.000000001
 43
0.00000001
 40
0.0
 40
0.0
 40
0.0
 40
0.0
 40
0.0164052252944954
 40
0.0723385360018782
 40
0.1280636651095604
 40
0.1834935407425338
 40
0.2385529896317673
 40
0.2931855636893904
 40
0.3473590110690491
 40
0.4010691590215324
 40
0.4543421620925033
 40
0.5071869707379717
 40
0.5597808685990187
 40
0.6130058500594906
 40
0.6665332654370267
 40
0.7202600554659676
 40
0.7740879487718071
 40
0.8279178513507969
 40
0.8816766857624424
 40
0.9351134871697802
 40
0.9891480401628723
 40
1.0
 40
1.0
 40
1.0
 40
1.0
 10
16.72086795532551
 20
-6.972535274713823
 30
0.0
 10
16.80998783374338
 20
-6.984343436546109
 30
0.0
 10
17.20296028109999
 20
-7.036411306659877
 30
0.0
 10
17.92004271619834
 20
-7.10812710494739
 30
0.0
 10
18.86615704293382
 20
-7.186551406220043
 30
0.0
 10
19.82163886565733
 20
-7.241981835885452
 30
0.0
 10
20.77905425374128
 20
-7.276098273910081
 30
0.0
 10
21.73380091229252
 20
-7.288310523818776
 30
0.0
 10
22.68093041397805
 20
-7.278794895320864
 30
0.0
 10
23.61611138267553
 20
-7.247650321421204
 30
0.0
 10
24.53523261254688
 20
-7.19514283534814
 30
0.0
 10
25.43510957980789
 20
-7.121418704853999
 30
0.0
 10
26.31808209723544
 20
-7.027116442146736
 30
0.0
 10
27.18440212397025
 20
-6.912223217687686
 30
0.0
 10
28.03237505679154
 20
-6.776555645324835
 30
0.0
 10
28.85511786278459
 20
-6.62073873465922
 30
0.0
 10
29.64728246587418
 20
-6.445358919080463
 30
0.0
 10
30.40348784574249
 20
-6.250889386595543
 30
0.0
 10
31.1195318843694
 20
-6.038559835911349
 30
0.0
 10
31.78992791696722
 20
-5.806469086391399
 30
0.0
 10
32.26081401382267
 20
-5.62750202775349
 30
0.0
 10
32.49370845718414
 20
-5.519777194318045
 30
0.0
 10
32.53265894219883
 20
-5.50176072964901
 30
0.0
  0
SPLINE
  5
318
330
30D
100
AcDbEntity
  8
0
  6
Continuous
 62
     7
370
    25
100
AcDbSpline
210
0.0
220
0.0
230
1.0
 70
     8
 71
     3
 72
    11
 73
     7
 74
     0
 42
0.000000001
 43
0.00000001
 40
0.0
 40
0.0
 40
0.0
 40
0.0
 40
0.2748806129747872
 40
0.6441791645124915
 40
0.968058691311223
 40
1.0
 40
1.0
 40
1.0
 40
1.0
 10
41.1903052213125
 20
-5.962125697455176
 30
0.0
 10
41.23629885423627
 20
-5.966799827050288
 30
0.0
 10
41.34408433866567
 20
-5.977753589357558
 30
0.0
 10
41.50014291154377
 20
-5.924963156969419
 30
0.0
 10
41.60709164868338
 20
-5.865991819042373
 30
0.0
 10
41.64559227235366
 20
-5.823982877282523
 30
0.0
 10
41.64904839460036
 20
-5.820211820496031
 30
0.0
  0
SPLINE
  5
31A
330
30D
100
AcDbEntity
  8
0
  6
Continuous
 62
     7
370
    25
100
AcDbSpline
210
0.0
220
0.0
230
1.0
 70
     8
 71
     3
 72
    17
 73
    13
 74
     0
 42
0.000000001
 43
0.00000001
 40
0.0
 40
0.0
 40
0.0
 40
0.0
 40
0.0468277130993538
 40
0.1403344661350127
 40
0.2387257932924076
 40
0.3438156511850569
 40
0.4515408226757952
 40
0.5637409559828539
 40
0.6763022748102844
 40
0.7909658875068631
 40
0.9058235856805213
 40
1.0
 40
1.0
 40
1.0
 40
1.0
 10
32.54233868436013
 20
-5.502626663930525
 30
0.0
 10
32.56445040968357
 20
-5.492657479588235
 30
0.0
 10
32.6307153832048
 20
-5.46278157769424
 30
0.0
 10
32.80078962794912
 20
-5.406053498129483
 30
0.0
 10
33.04297064798351
 20
-5.342209477526811
 30
0.0
 10
33.33862146378021
 20
-5.28427055881113
 30
0.0
 10
33.67519940889674
 20
-5.237213557819372
 30
0.0
 10
34.04205509369785
 20
-5.205612697490834
 30
0.0
 10
34.42877800761509
 20
-5.190740985487302
 30
0.0
 10
34.82087035956631
 20
-5.194963047636884
 30
0.0
 10
35.18777316736956
 20
-5.214871321469046
 30
0.0
 10
35.40995366033188
 20
-5.241233097370932
 30
0.0
 10
35.51005293077803
 20
-5.253109903026826
 30
0.0
  0
SPLINE
  5
31C
330
30D
100
AcDbEntity
  8
0
  6
Continuous
 62
     7
370
    25
100
AcDbSpline
210
0.0
220
0.0
230
1.0
 70
     8
 71
     3
 72
    27
 73
    23
 74
     0
 42
0.000000001
 43
0.00000001
 40
0.0
 40
0.0
 40
0.0
 40
0.0
 40
0.0311347957352189
 40
0.0744443356587231
 40
0.1174619676293048
 40
0.1608699454287351
 40
0.2055321204089317
 40
0.2521789039630533
 40
0.3012653664820388
 40
0.3527672871357836
 40
0.4060881521608605
 40
0.4602990817210401
 40
0.5144440149601675
 40
0.5678726030746338
 40
0.6215526865210002
 40
0.6751701909100484
 40
0.728891455771946
 40
0.7827744303937685
 40
0.836867396556814
 40
0.8911903200608582
 40
0.9457350212912563
 40
1.0
 40
1.0
 40
1.0
 40
1.0
 10
-36.03588182918882
 20
4.049684737398735
 30
0.0
 10
-36.05320623976423
 20
3.956364649953841
 30
0.0
 10
-36.09462948361434
 20
3.733233206518975
 30
0.0
 10
-36.08578569167419
 20
3.373796210044105
 30
0.0
 10
-36.02198114204771
 20
2.98479315596137
 30
0.0
 10
-35.89671252680382
 20
2.60674463447285
 30
0.0
 10
-35.71436486150608
 20
2.239764627200568
 30
0.0
 10
-35.47296130096586
 20
1.88201629592883
 30
0.0
 10
-35.1698719303193
 20
1.532574710308973
 30
0.0
 10
-34.80253776595548
 20
1.192338506806525
 30
0.0
 10
-34.37107487276372
 20
0.864197420158766
 30
0.0
 10
-33.87962324166062
 20
0.5522286448798666
 30
0.0
 10
-33.33496415386752
 20
0.2599616735020384
 30
0.0
 10
-32.74190833972928
 20
-0.0119185208430662
 30
0.0
 10
-32.10375625806323
 20
-0.2647590374795471
 30
0.0
 10
-31.4194778575853
 20
-0.5001052075872987
 30
0.0
 10
-30.69236052858295
 20
-0.71778552547129
 30
0.0
 10
-29.92408997729139
 20
-0.9178747660656683
 30
0.0
 10
-29.11728993706121
 20
-1.100258258131731
 30
0.0
 10
-28.27430740100093
 20
-1.264022632071329
 30
0.0
 10
-27.40307183808187
 20
-1.410073117255918
 30
0.0
 10
-26.80119222762377
 20
-1.490731787118466
 30
0.0
 10
-26.50102606350121
 20
-1.530957445398266
 30
0.0
  0
SPLINE
  5
31D
330
30D
100
AcDbEntity
  8
0
  6
Continuous
 62
     7
370
    25
100
AcDbSpline
210
0.0
220
0.0
230
1.0
 70
     8
 71
     3
 72
    13
 73
     9
 74
     0
 42
0.000000001
 43
0.00000001
 40
0.0
 40
0.0
 40
0.0
 40
0.0
 40
0.0426432654363782
 40
0.2957836886251883
 40
0.5447548221913663
 40
0.7825896315667317
 40
0.984933896083399
 40
1.0
 40
1.0
 40
1.0
 40
1.0
 10
-37.17749748899561
 20
3.904741349712783
 30
0.0
 10
-37.1570168313816
 20
3.902602831698472
 30
0.0
 10
-37.01495818759461
 20
3.887769569283129
 30
0.0
 10
-36.77711399532288
 20
3.844734644525123
 30
0.0
 10
-36.47932080710987
 20
3.77882647324833
 30
0.0
 10
-36.25435243220738
 20
3.709574808590368
 30
0.0
 10
-36.11916089725034
 20
3.659152810567345
 30
0.0
 10
-36.08129255201444
 20
3.640166230932669
 30
0.0
 10
-36.0786683513906
 20
3.63885049891925
 30
0.0
  0
SPLINE
  5
31F
330
30D
100
AcDbEntity
  8
0
  6
Continuous
 62
     7
370
    25
100
AcDbSpline
210
0.0
220
0.0
230
1.0
 70
     8
 71
     3
 72
    14
 73
    10
 74
     0
 42
0.000000001
 43
0.00000001
 40
0.0
 40
0.0
 40
0.0
 40
0.0
 40
0.1428723813516323
 40
0.3582810329296992
 40
0.4984013521637548
 40
0.6315522977972655
 40
0.7707999884494919
 40
0.913867996248579
 40
1.0
 40
1.0
 40
1.0
 40
1.0
 10
-43.33204957510726
 20
5.527301505240299
 30
0.0
 10
-43.34027699999569
 20
5.471110797369585
 30
0.0
 10
-43.36090891121251
 20
5.330201374103078
 30
0.0
 10
-43.35249708397152
 20
5.152091459960099
 30
0.0
 10
-43.3079108113395
 20
4.978333344752695
 30
0.0
 10
-43.23122410205568
 20
4.835472365963083
 30
0.0
 10
-43.11324692610248
 20
4.717983725679699
 30
0.0
 10
-42.98032918577095
 20
4.640682755795343
 30
0.0
 10
-42.88747240685173
 20
4.632724882420048
 30
0.0
 10
-42.85257738055521
 20
4.629734360845561
 30
0.0
  0
SPLINE
  5
320
330
30D
100
AcDbEntity
  8
0
  6
Continuous
 62
     7
370
    25
100
AcDbSpline
210
0.0
220
0.0
230
1.0
 70
     8
 71
     3
 72
    26
 73
    22
 74
     0
 42
0.000000001
 43
0.00000001
 40
0.0
 40
0.0
 40
0.0
 40
0.0
 40
0.1249999999999996
 40
0.1249999999999996
 40
0.2499999999999992
 40
0.2499999999999992
 40
0.3124999999999989
 40
0.3124999999999989
 40
0.3749999999999988
 40
0.3749999999999988
 40
0.4999999999999989
 40
0.4999999999999989
 40
0.562499999999999
 40
0.562499999999999
 40
0.624999999999999
 40
0.624999999999999
 40
0.7499999999999993
 40
0.7499999999999993
 40
0.8749999999999998
 40
0.8749999999999998
 40
1.0
 40
1.0
 40
1.0
 40
1.0
 10
16.482420381044
 20
-6.300831410671955
 30
0.0
 10
17.20046697016482
 20
-6.377075787391363
 30
0.0
 10
17.92995864043922
 20
-6.435320310257405
 30
0.0
 10
19.41127815392537
 20
-6.516099312747038
 30
0.0
 10
20.1631024351564
 20
-6.538642666265117
 30
0.0
 10
21.30836068984
 20
-6.54403899573959
 30
0.0
 10
21.69329361783743
 20
-6.541020711270672
 30
0.0
 10
22.45520919970278
 20
-6.525423815203622
 30
0.0
 10
22.83393345561187
 20
-6.512869745626919
 30
0.0
 10
23.96349092561699
 20
-6.461042840139364
 30
0.0
 10
24.70775043024867
 20
-6.407693533251313
 30
0.0
 10
25.81057792082531
 20
-6.298345194497755
 30
0.0
 10
26.17756868743069
 20
-6.256764352254391
 30
0.0
 10
26.89793929573177
 20
-6.164485697265232
 30
0.0
 10
27.25065809351022
 20
-6.113932381695046
 30
0.0
 10
28.28690652777334
 20
-5.949265416938708
 30
0.0
 10
28.94866736346142
 20
-5.822226090281803
 30
0.0
 10
30.21325467898703
 20
-5.532906003423626
 30
0.0
 10
30.81851072091266
 20
-5.36958238131156
 30
0.0
 10
31.936717117841
 20
-5.014091489488649
 30
0.0
 10
32.45278743078585
 20
-4.821242312129447
 30
0.0
 10
32.91835509547241
 20
-4.615681858713083
 30
0.0
  0
SPLINE
  5
322
330
30D
100
AcDbEntity
  8
0
  6
Continuous
 62
     7
370
    25
100
AcDbSpline
210
0.0
220
0.0
230
1.0
 70
     8
 71
     3
 72
    12
 73
     8
 74
     0
 42
0.000000001
 43
0.00000001
 40
0.0
 40
0.0
 40
0.0
 40
0.0
 40
0.25
 40
0.25
 40
0.5
 40
0.5
 40
1.0
 40
1.0
 40
1.0
 40
1.0
 10
21.18171667896722
 20
-4.44827830719418
 30
0.0
 10
20.76682390282445
 20
-4.602402976452781
 30
0.0
 10
20.34747413490931
 20
-4.732221684669427
 30
0.0
 10
19.50011758768629
 20
-4.944226406487999
 30
0.0
 10
19.0702570042378
 20
-5.026460644722286
 30
0.0
 10
17.79419724554755
 20
-5.198810244285132
 30
0.0
 10
16.9545202661515
 20
-5.217550931244832
 30
0.0
 10
16.12538353924689
 20
-5.151279497081763
 30
0.0
  0
SPLINE
  5
323
330
30D
100
AcDbEntity
  8
0
  6
Continuous
 62
     7
370
    25
100
AcDbSpline
210
0.0
220
0.0
230
1.0
 70
     8
 71
     3
 72
    18
 73
    14
 74
     0
 42
0.000000001
 43
0.00000001
 40
0.0
 40
0.0
 40
0.0
 40
0.0
 40
0.2500000000000002
 40
0.2500000000000002
 40
0.5000000000000004
 40
0.5000000000000004
 40
0.6250000000000003
 40
0.6250000000000003
 40
0.7500000000000002
 40
0.7500000000000002
 40
0.8750000000000001
 40
0.8750000000000001
 40
1.0
 40
1.0
 40
1.0
 40
1.0
 10
21.18171667896722
 20
-4.44827830719418
 30
0.0
 10
21.50819124328656
 20
-4.326999299362651
 30
0.0
 10
21.82312580399503
 20
-4.180823524488877
 30
0.0
 10
22.41539164728713
 20
-3.810113245214963
 30
0.0
 10
22.68623048260266
 20
-3.589830110771529
 30
0.0
 10
23.01719841157755
 20
-3.182678629544963
 30
0.0
 10
23.11192317450329
 20
-3.037367465977957
 30
0.0
 10
23.26318722007242
 20
-2.723487885858495
 30
0.0
 10
23.31808635255186
 20
-2.556599417647239
 30
0.0
 10
23.37775364517373
 20
-2.216728630825234
 30
0.0
 10
23.38264407231796
 20
-2.039051362990246
 30
0.0
 10
23.34392585779026
 20
-1.69798127055935
 30
0.0
 10
23.30150868436781
 20
-1.532449957190651
 30
0.0
 10
23.23888011306697
 20
-1.371315449800813
 30
0.0
  0
LWPOLYLINE
  5
324
330
30D
100
AcDbEntity
  8
0
  6
Continuous
 62
     7
370
    25
100
AcDbPolyline
 90
       51
 70
   128
 43
0.0
 10
-31.8420126155
 20
5.5682247444
 10
-31.2760556811
 20
6.7939506361
 10
-30.6500089488
 20
7.983745546
 10
-29.9652670336
 20
9.1349590242
 10
-29.2233553026
 20
10.2450265665
 10
-28.4259264776
 20
11.311475328
 10
-27.5747569533
 20
12.3319296311
 10
-26.6717428398
 20
13.3041162578
 10
-25.718895739
 20
14.2258695138
 10
-24.7183382636
 20
15.0951360528
 10
-23.6722993082
 20
15.9099794509
 10
-22.5831090844
 20
16.6685845198
 10
-21.4531939299
 20
17.3692613507
 10
-20.2850709035
 20
18.010449079
 10
-19.0813421776
 20
18.590719361
 10
-17.8446892421
 20
19.1087795559
 10
-16.5778669303
 20
19.5634756056
 10
-15.2836972825
 20
19.9537946049
 10
-13.9650632593
 20
20.2788670588
 10
-12.6249023198
 20
20.5379688187
 10
-11.266199877
 20
20.7305226957
 10
-9.8919826484
 20
20.8560997467
 10
-8.5053119129
 20
20.9144202296
 10
-7.1092766915
 20
20.9053542267
 10
-5.706986866
 20
20.8289219338
 10
-4.3015662512
 20
20.6852936155
 10
-2.8961456365
 20
20.474789226
 10
-1.4938558109
 20
20.1978776958
 10
-0.0978205895
 20
19.8551758877
 10
1.288850146
 20
19.4474472224
 10
2.6630673745
 20
18.9755999778
 10
4.0217698173
 20
18.4406852658
 10
5.3619307569
 20
17.8438946906
 10
6.68056478
 20
17.1865576945
 10
7.9747344278
 20
16.470138596
 10
9.2415567396
 20
15.6962333282
 10
10.4782096752
 20
14.8665658834
 10
11.681938401
 20
13.9829844725
 10
12.8500614275
 20
13.0474574083
 10
13.9799765819
 20
12.0620687203
 10
15.0691668057
 20
11.0290135122
 10
16.1152057611
 20
9.9505930726
 10
17.1157632366
 20
8.8292097477
 10
18.0686103373
 20
7.6673615903
 10
18.9716244508
 20
6.4676367947
 10
19.8227939752
 20
5.2327079313
 10
20.6202228001
 20
3.9653259928
 10
21.3621345311
 20
2.6683142663
 10
22.0468764463
 20
1.3445620435
 10
22.6729231786
 20
-0.0029818152
 10
23.2388801131
 20
-1.3713154498
  0
SPLINE
  5
325
330
30D
100
AcDbEntity
  8
0
  6
Continuous
 62
     7
370
    25
100
AcDbSpline
210
0.0
220
0.0
230
1.0
 70
     8
 71
     3
 72
    18
 73
    14
 74
     0
 42
0.000000001
 43
0.00000001
 40
0.0
 40
0.0
 40
0.0
 40
0.0
 40
0.1250000000000002
 40
0.1250000000000002
 40
0.2500000000000005
 40
0.2500000000000005
 40
0.3750000000000008
 40
0.3750000000000008
 40
0.500000000000001
 40
0.500000000000001
 40
0.7500000000000004
 40
0.7500000000000004
 40
1.0
 40
1.0
 40
1.0
 40
1.0
 10
-31.84201261552976
 20
5.56822474440886
 30
0.0
 10
-31.90470725100889
 20
5.422717826409643
 30
0.0
 10
-31.95504896051188
 20
5.267655333197419
 30
0.0
 10
-32.02608559071543
 20
4.939104354308425
 30
0.0
 10
-32.04624157027435
 20
4.764981424937498
 30
0.0
 10
-32.05159513231123
 20
4.419372504817398
 30
0.0
 10
-32.03684577751347
 20
4.242345162887482
 30
0.0
 10
-31.97586242083416
 20
3.90307176407351
 30
0.0
 10
-31.93025068693364
 20
3.740022663475158
 30
0.0
 10
-31.75326790320451
 20
3.267493900977395
 30
0.0
 10
-31.5897905782496
 20
2.992937664541966
 30
0.0
 10
-31.20513092624543
 20
2.500016258824712
 30
0.0
 10
-30.98780077563013
 20
2.286871876921205
 30
0.0
 10
-30.75134749341214
 20
2.094672766755821
 30
0.0
  0
SPLINE
  5
326
330
30D
100
AcDbEntity
  8
0
  6
Continuous
 62
     7
370
    25
100
AcDbSpline
210
0.0
220
0.0
230
1.0
 70
     8
 71
     3
 72
    12
 73
     8
 74
     0
 42
0.000000001
 43
0.00000001
 40
0.0
 40
0.0
 40
0.0
 40
0.0
 40
0.5
 40
0.5
 40
0.75
 40
0.75
 40
1.0
 40
1.0
 40
1.0
 40
1.0
 10
-26.37843186409973
 20
0.203697896842308
 30
0.0
 10
-27.20756859100434
 20
0.3463492799328054
 30
0.0
 10
-27.99296380448832
 20
0.5698298184513839
 30
0.0
 10
-29.09875244867282
 20
1.042264109990944
 30
0.0
 10
-29.45650276639509
 20
1.223727994574712
 30
0.0
 10
-30.13168840296182
 20
1.627555001007482
 30
0.0
 10
-30.45085225726651
 20
1.850417679855068
 30
0.0
 10
-30.75134749341213
 20
2.094672766755826
 30
0.0
  0
LWPOLYLINE
  5
32C
330
30D
100
AcDbEntity
  8
0
  6
Continuous
 62
     7
370
    25
100
AcDbPolyline
 90
       73
 70
   128
 43
0.0
 10
40.896251321
 20
-5.2786792827
 10
40.610206424
 20
-3.5816585812
 10
40.2594601613
 20
-1.8891339724
 10
39.8445571282
 20
-0.2037333991
 10
39.3661415348
 20
1.4719262573
 10
38.8249562057
 20
3.1352432396
 10
38.2218414264
 20
4.7836349552
 10
37.557733639
 20
6.4145419854
 10
36.8336639879
 20
8.0254320594
 10
36.0507567188
 20
9.6138039865
 10
35.2102274333
 20
11.1771915392
 10
34.3133812013
 20
12.7131672829
 10
33.3616105346
 20
14.2193463445
 10
32.356393225
 20
15.6933901153
 10
31.2992900494
 20
17.1330098828
 10
30.1919423471
 20
18.5359703833
 10
29.0360694703
 20
19.9000932734
 10
27.8334661156
 20
21.223260512
 10
26.5859995366
 20
22.5034176485
 10
25.2956066451
 20
23.7385770135
 10
23.9642910035
 20
24.9268208042
 10
22.594119714
 20
26.0663040627
 10
21.1872202091
 20
27.1552575404
 10
19.7457769482
 20
28.1919904451
 10
18.2720280261
 20
29.1748930662
 10
16.7682616977
 20
30.1024392741
 10
15.2368128255
 20
30.9731888898
 10
13.6800592536
 20
31.7857899211
 10
12.1004181164
 20
32.5389806617
 10
10.5003420853
 20
33.23159165
 10
8.8823155603
 20
33.8625474856
 10
7.2488508128
 20
34.4308684982
 10
5.6024840847
 20
34.9356722692
 10
3.9457716507
 20
35.3761750019
 10
2.2812858488
 20
35.7516927381
 10
0.6116110866
 20
36.0616424204
 10
-1.0606601715
 20
36.3055427971
 10
-2.7329314296
 20
36.48301517
 10
-4.4026061918
 20
36.593783982
 10
-6.0670919938
 20
36.6376772449
 10
-7.7238044278
 20
36.6146268066
 10
-9.3701711558
 20
36.5246684572
 10
-11.0036359033
 20
36.3679418727
 10
-12.6216624283
 20
36.1446903989
 10
-14.2217384595
 20
35.8552606729
 10
-15.8013795966
 20
35.5001020855
 10
-17.3581331685
 20
35.0797660829
 10
-18.8895820408
 20
34.5949053109
 10
-20.3933483692
 20
34.0462726014
 10
-21.8670972913
 20
33.4347198032
 10
-23.3085405522
 20
32.76119646
 10
-24.7154400571
 20
32.0267483354
 10
-26.0856113466
 20
31.2325157896
 10
-27.4169269882
 20
30.3797320087
 10
-28.7073198797
 20
29.4697210897
 10
-29.9547864587
 20
28.5038959851
 10
-31.1573898134
 20
27.4837563086
 10
-32.3132626901
 20
26.4108860068
 10
-33.4206103925
 20
25.2869508999
 10
-34.477713568
 20
24.1136960955
 10
-35.4829308777
 20
22.8929432783
 10
-36.4347015444
 20
21.6265878823
 10
-37.3315477764
 20
20.3165961474
 10
-38.1720770619
 20
18.9650020668
 10
-38.954984331
 20
17.5739042286
 10
-39.6790539821
 20
16.1454625572
 10
-40.3431617695
 20
14.6818949603
 10
-40.9462765487
 20
13.1854738844
 10
-41.4874618779
 20
11.6585227871
 10
-41.9658774713
 20
10.1034125291
 10
-42.3807805044
 20
8.5225576933
 10
-42.7315267671
 20
6.9184128353
 10
-43.017571664
 20
5.2934686729
  0
LWPOLYLINE
  5
32F
330
30D
100
AcDbEntity
  8
0
  6
Continuous
 62
     7
370
    25
100
AcDbPolyline
 90
       67
 70
   128
 43
0.0
 10
-37.4044862635
 20
4.5862863848
 10
-37.0999801143
 20
6.0908075168
 10
-36.7310280595
 20
7.5728541077
 10
-36.2982898633
 20
9.0297759455
 10
-35.8025393527
 20
10.4589677468
 10
-35.2446630343
 20
11.8578738151
 10
-34.6256585086
 20
13.2239926113
 10
-33.9466326862
 20
14.5548812269
 10
-33.2087998086
 20
15.8481597523
 10
-32.4134792765
 20
17.1015155326
 10
-31.5620932907
 20
18.3127073036
 10
-30.6561643092
 20
19.4795691986
 10
-29.6973123238
 20
20.6000146227
 10
-28.6872519642
 20
21.672039983
 10
-27.6277894315
 20
22.6937282721
 10
-26.520819268
 20
23.6632524957
 10
-25.3683209699
 20
24.5788789402
 10
-24.1723554472
 20
25.4389702723
 10
-22.9350613386
 20
26.2419884673
 10
-21.6586511869
 20
26.9864975593
 10
-20.3454074827
 20
27.6711662089
 10
-18.9976785827
 20
28.2947700843
 10
-17.6178745104
 20
28.8561940501
 10
-16.2084626466
 20
29.3544341619
 10
-14.7719633169
 20
29.7885994613
 10
-13.3109452852
 20
30.1579135692
 10
-11.8280211598
 20
30.461716074
 10
-10.3258427219
 20
30.6994637128
 10
-8.8070961833
 20
30.8707313426
 10
-7.2744973833
 20
30.9752127009
 10
-5.7307869317
 20
31.0127209528
 10
-4.1787253084
 20
30.9831890258
 10
-2.6210879269
 20
30.8866697291
 10
-1.0606601715
 20
30.7233356596
 10
0.4997675839
 20
30.4934788931
 10
2.0574049653
 20
30.197510462
 10
3.6094665886
 20
29.8359596202
 10
5.1531770402
 20
29.4094728969
 10
6.6857758403
 20
28.9188129403
 10
8.2045223788
 20
28.364857154
 10
9.7067008167
 20
27.7485961276
 10
11.1896249421
 20
27.0711318659
 10
12.6506429738
 20
26.333675818
 10
14.0871423035
 20
25.5375467107
 10
15.4965541673
 20
24.6841681908
 10
16.8763582396
 20
23.7750662791
 10
18.2240871396
 20
22.8118666416
 10
19.5373308438
 20
21.7962916824
 10
20.8137409956
 20
20.7301574637
 10
22.0510351042
 20
19.6153704584
 10
23.2470006268
 20
18.4539241408
 10
24.3994989249
 20
17.2478954219
 10
25.5064690884
 20
15.9994409353
 10
26.5659316212
 20
14.7107931812
 10
27.5759919807
 20
13.3842565333
 10
28.5348439661
 20
12.0222031192
 10
29.4407729477
 20
10.6270685775
 10
30.2921589334
 20
9.201347703
 10
31.0874794655
 20
7.7475899855
 10
31.8253123431
 20
6.2683950504
 10
32.5043381655
 20
4.7664080102
 10
33.1233426913
 20
3.2443147345
 10
33.6812190097
 20
1.7048370471
 10
34.1769695202
 20
0.150727859
 10
34.6097077165
 20
-1.415233755
 10
34.9786597712
 20
-2.9902475252
 10
35.2831659204
 20
-4.5714969946
  0
SPLINE
  5
332
330
30D
100
AcDbEntity
  8
0
  6
Continuous
 62
     7
370
    25
100
AcDbSpline
210
0.0
220
0.0
230
1.0
 70
     8
 71
     3
 72
    10
 73
     6
 74
     0
 42
0.000000001
 43
0.00000001
 40
0.0
 40
0.0
 40
0.0
 40
0.0
 40
0.5
 40
0.5
 40
1.0
 40
1.0
 40
1.0
 40
1.0
 10
41.78192593524738
 20
-5.439061704090826
 30
0.0
 10
41.73470173597777
 20
-5.480709533135675
 30
0.0
 10
41.68120029463352
 20
-5.467301809044454
 30
0.0
 10
41.59081901004981
 20
-5.344335998789734
 30
0.0
 10
41.55425748394526
 20
-5.236351352823559
 30
0.0
 10
41.53533129002706
 20
-5.109569157037401
 30
0.0
  0
LWPOLYLINE
  5
333
330
30D
100
AcDbEntity
  8
0
  6
Continuous
 62
     7
370
    25
100
AcDbPolyline
 90
       50
 70
   128
 43
0.0
 10
22.1648337845
 20
-1.7517668113
 10
21.6067692504
 20
-0.4041846678
 10
20.9883373022
 20
0.9224401536
 10
20.3109723851
 20
2.2250305633
 10
19.5762456385
 20
3.5005652191
 10
18.7858612519
 20
4.7460855343
 10
17.941652512
 20
5.9587025401
 10
17.0455775505
 20
7.1356035866
 10
16.0997148019
 20
8.2740588666
 10
15.1062581831
 20
9.3714277473
 10
14.0675120042
 20
10.4251648952
 10
12.9858856241
 20
11.4328261804
 10
11.8638878615
 20
12.3920743449
 10
10.7041211762
 20
13.3006844248
 10
9.5092756326
 20
14.1565489103
 10
8.28212266
 20
14.9576826345
 10
7.0255086242
 20
15.7022273777
 10
5.7423482258
 20
16.3884561776
 10
4.4356177393
 20
17.0147773353
 10
3.1083481096
 20
17.5797381066
 10
1.7636179222
 20
18.0820280721
 10
0.4045462618
 20
18.5204821764
 10
-0.9657145219
 20
18.8940834308
 10
-2.3439861262
 20
19.2019652719
 10
-3.7270716673
 20
19.4434135716
 10
-5.1117630955
 20
19.6178682935
 10
-6.4948486366
 20
19.7249247921
 10
-7.8731202409
 20
19.7643347512
 10
-9.2433810246
 20
19.73600676
 10
-10.602452685
 20
19.6400065247
 10
-11.9471828724
 20
19.4765567168
 10
-13.2744525021
 20
19.2460364561
 10
-14.5811829886
 20
18.9489804314
 10
-15.864343387
 20
18.5860776604
 10
-17.1209574228
 20
18.1581698916
 10
-18.3481103954
 20
17.6662496517
 10
-19.542955939
 20
17.1114579436
 10
-20.7027226243
 20
16.4950815995
 10
-21.8247203869
 20
15.8185502969
 10
-22.906346767
 20
15.0834332414
 10
-23.9450929459
 20
14.2914355281
 10
-24.9385495647
 20
13.4443941855
 10
-25.8844123133
 20
12.5442739156
 10
-26.7804872748
 20
11.5931625361
 10
-27.6246960147
 20
10.5932661378
 10
-28.4150804013
 20
9.5469039679
 10
-29.1498071479
 20
8.4565030504
 10
-29.827172065
 20
7.3245925567
 10
-30.4456040132
 20
6.1537979388
 10
-31.0036685473
 20
4.9468348402
  0
SPLINE
  5
336
330
30D
100
AcDbEntity
  8
0
  6
Continuous
 62
     7
370
    25
100
AcDbSpline
210
0.0
220
0.0
230
1.0
 70
     8
 71
     3
 72
    11
 73
     7
 74
     0
 42
0.000000001
 43
0.00000001
 40
0.0
 40
0.0
 40
0.0
 40
0.0
 40
0.1768296835591779
 40
0.6026973403169562
 40
0.9926013595145963
 40
0.9999999999999999
 40
0.9999999999999999
 40
0.9999999999999999
 40
0.9999999999999999
 10
42.31486070553694
 20
-5.226968916548905
 30
0.0
 10
42.32928594476921
 20
-5.214964731295554
 30
0.0
 10
42.37845219979906
 20
-5.174050274066168
 30
0.0
 10
42.37598838752107
 20
-5.083947655373914
 30
0.0
 10
42.34023319671753
 20
-5.008558813869427
 30
0.0
 10
42.31276749222842
 20
-4.972034689551013
 30
0.0
 10
42.31225602101563
 20
-4.971354530840039
 30
0.0
  0
SPLINE
  5
338
330
30D
100
AcDbEntity
  8
0
  6
Continuous
 62
     7
370
    25
100
AcDbSpline
210
0.0
220
0.0
230
1.0
 70
     8
 71
     3
 72
    12
 73
     8
 74
     0
 42
0.000000001
 43
0.00000001
 40
0.0
 40
0.0
 40
0.0
 40
0.0
 40
0.4999999999999969
 40
0.4999999999999969
 40
0.7499999999999984
 40
0.7499999999999984
 40
1.0
 40
1.0
 40
1.0
 40
1.0
 10
-37.40448626345066
 20
4.586286384808091
 30
0.0
 10
-36.99240032999254
 20
4.569481657922122
 30
0.0
 10
-36.63693742504456
 20
4.512058297965645
 30
0.0
 10
-36.27117345863785
 20
4.375901890383157
 30
0.0
 10
-36.18007057702646
 20
4.323609396907051
 30
0.0
 10
-36.06394954047188
 20
4.205166453267652
 30
0.0
 10
-36.0415196615465
 20
4.141920709729092
 30
0.0
 10
-36.05614143626789
 20
4.074287881172466
 30
0.0
  0
SPLINE
  5
339
330
30D
100
AcDbEntity
  8
0
  6
Continuous
 62
     7
370
    25
100
AcDbSpline
210
0.0
220
0.0
230
1.0
 70
     8
 71
     3
 72
    12
 73
     8
 74
     0
 42
0.000000001
 43
0.00000001
 40
0.0
 40
0.0
 40
0.0
 40
0.0
 40
0.4999999999999968
 40
0.4999999999999968
 40
0.7499999999999983
 40
0.7499999999999983
 40
1.0
 40
1.0
 40
1.0
 40
1.0
 10
32.9183550954724
 20
-4.615681858713083
 30
0.0
 10
33.188189250364
 20
-4.510818629728671
 30
0.0
 10
33.57256168206173
 20
-4.45297032785941
 30
0.0
 10
34.20720570197498
 20
-4.443427226938739
 30
0.0
 10
34.42477566199915
 20
-4.452745534604334
 30
0.0
 10
34.86307221479492
 20
-4.49537347523532
 30
0.0
 10
35.07724291297443
 20
-4.528006745509592
 30
0.0
 10
35.28316592037766
 20
-4.571496994591036
 30
0.0
  0
SPLINE
  5
33B
330
30D
100
AcDbEntity
  8
0
  6
Continuous
 62
     7
370
    25
100
AcDbSpline
210
0.0
220
0.0
230
1.0
 70
     8
 71
     3
 72
    12
 73
     8
 74
     0
 42
0.000000001
 43
0.00000001
 40
0.0
 40
0.0
 40
0.0
 40
0.0
 40
0.500000000000001
 40
0.500000000000001
 40
0.7500000000000004
 40
0.7500000000000004
 40
1.0
 40
1.0
 40
1.0
 40
1.0
 10
16.33249032038592
 20
-3.63529515112802
 30
0.0
 10
17.04734763532032
 20
-3.725358707188299
 30
0.0
 10
17.77127243502711
 20
-3.732789339047055
 30
0.0
 10
18.87250607936012
 20
-3.604081552364392
 30
0.0
 10
19.2439467050154
 20
-3.537099631025356
 30
0.0
 10
19.974205194499
 20
-3.357166359418233
 30
0.0
 10
20.33485032199744
 20
-3.244234979808525
 30
0.0
 10
20.69097552449334
 20
-3.108155472245699
 30
0.0
  0
SPLINE
  5
33E
330
30D
100
AcDbEntity
  8
0
  6
Continuous
 62
     7
370
    25
100
AcDbSpline
210
0.0
220
0.0
230
1.0
 70
     8
 71
     3
 72
    18
 73
    14
 74
     0
 42
0.000000001
 43
0.00000001
 40
0.0
 40
0.0
 40
0.0
 40
0.0
 40
0.1250000000000002
 40
0.1250000000000002
 40
0.2500000000000003
 40
0.2500000000000003
 40
0.3750000000000005
 40
0.3750000000000005
 40
0.5000000000000007
 40
0.5000000000000007
 40
0.7500000000000003
 40
0.7500000000000003
 40
1.0
 40
1.0
 40
1.0
 40
1.0
 10
22.16483378447432
 20
-1.751766811256855
 30
0.0
 10
22.2275022262677
 20
-1.836333096298031
 30
0.0
 10
22.27900192424299
 20
-1.92960586977774
 30
0.0
 10
22.33128103438242
 20
-2.131820509499612
 30
0.0
 10
22.32815547976353
 20
-2.240889682282848
 30
0.0
 10
22.25747997408587
 20
-2.434764291425244
 30
0.0
 10
22.19289325831574
 20
-2.519876197267162
 30
0.0
 10
22.04131063009469
 20
-2.661283426856166
 30
0.0
 10
21.95421406755005
 20
-2.719100989804324
 30
0.0
 10
21.68458272630389
 20
-2.866408621450243
 30
0.0
 10
21.48947517266886
 20
-2.933632924640009
 30
0.0
 10
21.09394458330227
 20
-3.040192342968824
 30
0.0
 10
20.89319152639815
 20
-3.078443778956045
 30
0.0
 10
20.69097552449333
 20
-3.108155472245702
 30
0.0
  0
SPLINE
  5
340
330
30D
100
AcDbEntity
  8
0
  6
Continuous
 62
     7
370
    25
100
AcDbSpline
210
0.0
220
0.0
230
1.0
 70
     8
 71
     3
 72
    12
 73
     8
 74
     0
 42
0.000000001
 43
0.00000001
 40
0.0
 40
0.0
 40
0.0
 40
0.0
 40
0.2499999999999994
 40
0.2499999999999994
 40
0.4999999999999989
 40
0.4999999999999989
 40
1.0
 40
1.0
 40
1.0
 40
1.0
 10
-29.94402384957561
 20
3.271254809311029
 30
0.0
 10
-29.6863847125126
 20
3.057848263402463
 30
0.0
 10
-29.41193650691261
 20
2.864902644847374
 30
0.0
 10
-28.82968828831352
 20
2.519609071242438
 30
0.0
 10
-28.52017544289178
 20
2.366835076666508
 30
0.0
 10
-27.56450987550385
 20
1.978982347916391
 30
0.0
 10
-26.88618239789511
 20
1.80974579885633
 30
0.0
 10
-26.1713250829607
 20
1.719682242796047
 30
0.0
  0
SPLINE
  5
342
330
30D
100
AcDbEntity
  8
0
  6
Continuous
 62
     7
370
    25
100
AcDbSpline
210
0.0
220
0.0
230
1.0
 70
     8
 71
     3
 72
    18
 73
    14
 74
     0
 42
0.000000001
 43
0.00000001
 40
0.0
 40
0.0
 40
0.0
 40
0.0
 40
0.2499999999999994
 40
0.2499999999999994
 40
0.4999999999999989
 40
0.4999999999999989
 40
0.6249999999999991
 40
0.6249999999999991
 40
0.7499999999999994
 40
0.7499999999999994
 40
0.8749999999999997
 40
0.8749999999999997
 40
1.0
 40
1.0
 40
1.0
 40
1.0
 10
-29.94402384957561
 20
3.271254809311029
 30
0.0
 10
-30.1161254177794
 20
3.348101604944651
 30
0.0
 10
-30.28394341085754
 20
3.432746967519308
 30
0.0
 10
-30.60642062505928
 20
3.62954116802164
 30
0.0
 10
-30.7620600362287
 20
3.74117815977437
 30
0.0
 10
-30.96601653041325
 20
3.947801743571674
 30
0.0
 10
-31.03007979975248
 20
4.024689990302206
 30
0.0
 10
-31.13465995484545
 20
4.197558040377338
 30
0.0
 10
-31.17582417914511
 20
4.296652170548417
 30
0.0
 10
-31.20583684090645
 20
4.503340609647046
 30
0.0
 10
-31.19256398648383
 20
4.611558517865964
 30
0.0
 10
-31.12143099105192
 20
4.797895903144258
 30
0.0
 10
-31.06640230915124
 20
4.877987832876929
 30
0.0
 10
-31.00366854727854
 20
4.946834840229668
 30
0.0
  0
SPLINE
  5
348
330
30D
100
AcDbEntity
  8
0
  6
Continuous
 62
     8
370
    25
100
AcDbSpline
210
0.0
220
0.0
230
1.0
 70
     8
 71
     3
 72
    23
 73
    19
 74
     0
 42
0.000000001
 43
0.00000001
 40
0.0
 40
0.0
 40
0.0
 40
0.0
 40
0.0583308454324033
 40
0.1221127525435482
 40
0.187291502910819
 40
0.2529502746333759
 40
0.3162369726237435
 40
0.3799567164738343
 40
0.44503062075277
 40
0.5105672097593246
 40
0.5745042722189236
 40
0.6388701800035627
 40
0.7045702921869901
 40
0.7707234838083226
 40
0.827691668389607
 40
0.8849455572764375
 40
0.9423312132494467
 40
1.0
 40
1.0
 40
1.0
 40
1.0
 10
-36.05888660325206
 20
4.043703047239996
 30
0.0
 10
-36.07552972477895
 20
3.924985868503807
 30
0.0
 10
-36.11037128014297
 20
3.676457300775777
 30
0.0
 10
-36.04318272722548
 20
3.294007977794385
 30
0.0
 10
-35.8824956183896
 20
2.899121429253051
 30
0.0
 10
-35.62073571542704
 20
2.510283304881781
 30
0.0
 10
-35.26677505467657
 20
2.132081422646925
 30
0.0
 10
-34.82338270965843
 20
1.765000900080138
 30
0.0
 10
-34.28562316790941
 20
1.406261233706154
 30
0.0
 10
-33.66091006026507
 20
1.062298898168224
 30
0.0
 10
-32.95803025043228
 20
0.7367558471314088
 30
0.0
 10
-32.17990492780925
 20
0.4298735005865522
 30
0.0
 10
-31.32214799148665
 20
0.1406768213175168
 30
0.0
 10
-30.43378154300798
 20
-0.1153348015667938
 30
0.0
 10
-29.53515100509076
 20
-0.3389142306456996
 30
0.0
 10
-28.63992609433802
 20
-0.5318607055111342
 30
0.0
 10
-27.70758842475345
 20
-0.7069330798979805
 30
0.0
 10
-27.0600397837619
 20
-0.8061557621635123
 30
0.0
 10
-26.73546870589684
 20
-0.8558891889563978
 30
0.0
  0
LWPOLYLINE
  5
349
330
30D
100
AcDbEntity
  8
0
  6
Continuous
 62
     8
370
    25
100
AcDbPolyline
 90
       63
 70
   128
 43
0.0
 10
32.9183550955
 20
-4.6156818587
 10
32.6012258336
 20
-3.0816026637
 10
32.2204076318
 20
-1.5546881802
 10
31.7766102888
 20
-0.0377843906
 10
31.2706609888
 20
1.4662813811
 10
30.7035027596
 20
2.9547057395
 10
30.0761927152
 20
4.4247144429
 10
29.389900085
 20
5.873567574
 10
28.645904035
 20
7.2985646472
 10
27.8455912831
 20
8.6970496415
 10
26.9904535148
 20
10.0664159511
 10
26.0820846028
 20
11.404111244
 10
25.1221776361
 20
12.7076422192
 10
24.1125217643
 20
13.9745792537
 10
23.0549988631
 20
15.2025609311
 10
21.9515800263
 20
16.3892984432
 10
20.8043218922
 20
17.5325798558
 10
19.6153628103
 20
18.6302742315
 10
18.3869188554
 20
19.6803356019
 10
17.1212796975
 20
20.6808067803
 10
15.8208043339
 20
21.6298230104
 10
14.4879166921
 20
22.5256154415
 10
13.1251011125
 20
23.3665144256
 10
11.7348977172
 20
24.1509526294
 10
10.3198976761
 20
24.8774679557
 10
8.8827383769
 20
25.5447062683
 10
7.4260985095
 20
26.1514239164
 10
5.9526930732
 20
26.6964900521
 10
4.4652683163
 20
27.1788887385
 10
2.9665966173
 20
27.5977208433
 10
1.4594713177
 20
27.9522057144
 10
-0.0532984844
 20
28.2416826352
 10
-1.5688931704
 20
28.465612056
 10
-3.0844878564
 20
28.6235765996
 10
-4.5972576585
 20
28.7152818393
 10
-6.1043829581
 20
28.7405568477
 10
-7.6030546571
 20
28.6993545153
 10
-9.090479414
 20
28.5917516383
 10
-10.5638848503
 20
28.4179487753
 10
-12.0205247177
 20
28.1782698736
 10
-13.4576840169
 20
27.8731616655
 10
-14.872684058
 20
27.5031928356
 10
-16.2628874533
 20
27.0690529608
 10
-17.6257030329
 20
26.5715512247
 10
-18.9585906747
 20
26.0116149102
 10
-20.2590660383
 20
25.3902876703
 10
-21.5247051962
 20
24.7087275833
 10
-22.7531491511
 20
23.9682049941
 10
-23.942108233
 20
23.1701001467
 10
-25.0893663671
 20
22.3159006113
 10
-26.1927852039
 20
21.4071985119
 10
-27.2503081051
 20
20.4456875584
 10
-28.2599639769
 20
19.4331598901
 10
-29.2198709436
 20
18.3715027354
 10
-30.1282398556
 20
17.2626948937
 10
-30.9833776239
 20
16.108803048
 10
-31.7836903758
 20
14.911977912
 10
-32.5276864258
 20
13.674450222
 10
-33.213979056
 20
12.3985265789
 10
-33.8412891004
 20
11.0865851491
 10
-34.4084473295
 20
9.7410712314
 10
-34.9143966296
 20
8.3644927
 10
-35.2519321063
 20
7.3171258349
  0
LWPOLYLINE
  5
34A
330
30D
100
AcDbEntity
  8
0
  6
Continuous
 62
     8
370
    25
100
AcDbPolyline
 90
        8
 70
   128
 43
0.0
 10
-43.334901013
 20
5.5259162197
 10
-43.3355570138
 20
5.5095343996
 10
-43.3233979624
 20
5.4705956252
 10
-43.2926927486
 20
5.4308412028
 10
-43.2446213566
 20
5.3917988725
 10
-43.181031143
 20
5.3549690093
 10
-43.104365844
 20
5.3217669641
 10
-43.017571664
 20
5.2934686729
  0
LWPOLYLINE
  5
34B
330
30D
100
AcDbEntity
  8
0
  6
Continuous
 62
     8
370
    25
100
AcDbPolyline
 90
       51
 70
   128
 43
0.0
 10
-22.7336673353
 20
33.6596266696
 10
-21.9195768414
 20
34.0303944805
 10
-20.4295893801
 20
34.6486856884
 10
-18.909253765
 20
35.2033635211
 10
-17.3609305852
 20
35.6935667436
 10
-15.7870238853
 20
36.1185342288
 10
-14.189977433
 20
36.47760614
 10
-12.5722709243
 20
36.7702249546
 10
-10.9364161337
 20
36.9959363304
 10
-9.2849530142
 20
37.1543898106
 10
-7.6204457534
 20
37.2453393684
 10
-5.9454787922
 20
37.2686437884
 10
-4.262652812
 20
37.2242668865
 10
-2.5745806969
 20
37.1122775657
 10
-0.8838834763
 20
36.932849709
 10
0.8068137443
 20
36.6862619099
 10
2.4948858595
 20
36.3728970394
 10
4.1777118396
 20
35.9932416516
 10
5.8526788008
 20
35.5478852286
 10
7.5171860617
 20
35.0375192646
 10
9.1686491811
 20
34.4629361928
 10
10.8045039717
 20
33.8250281547
 10
12.4222104804
 20
33.1247856149
 10
14.0192569328
 20
32.3632958234
 10
15.5931636327
 20
31.5417411274
 10
17.1414868125
 20
30.6613971354
 10
18.6618224275
 20
29.7236307365
 10
20.1518098888
 20
28.7298979784
 10
21.6091357282
 20
27.6817418064
 10
23.0315371903
 20
26.5807896677
 10
24.4168057463
 20
25.4287509845
 10
25.7627905224
 20
24.2274145
 10
27.0674016401
 20
22.9786455009
 10
28.3286134607
 20
21.684382921
 10
29.5444677304
 20
20.3466363313
 10
30.7130766212
 20
18.9674828192
 10
31.8326256618
 20
17.5490637634
 10
32.901376555
 20
16.0935815098
 10
33.9176698766
 20
14.6032959509
 10
34.8799276521
 20
13.0805210179
 10
35.7866558066
 20
11.5276210872
 10
36.636446485
 20
9.9470073098
 10
37.4279802373
 20
8.3411338671
 10
38.1600280679
 20
6.7124941607
 10
38.8314533434
 20
5.0636169408
 10
39.4412135579
 20
3.3970623801
 10
39.9883619511
 20
1.7154180981
 10
40.4720489786
 20
0.0212951442
 10
40.8915236311
 20
-1.6826760573
 10
41.2461346003
 20
-3.3938497907
 10
41.53533129
 20
-5.109569157
  0
LWPOLYLINE
  5
34C
330
30D
100
AcDbEntity
  8
0
  6
Continuous
 62
     8
370
    25
100
AcDbPolyline
 90
       51
 70
   128
 43
0.0
 10
42.312256021
 20
-4.9713545308
 10
42.0434401418
 20
-3.2650462659
 10
41.7098482552
 20
-1.562470512
 10
41.3119921716
 20
0.1337605684
 10
40.8504822984
 20
1.8210445474
 10
40.3260267032
 20
3.4967927237
 10
39.7394300275
 20
5.1584340952
 10
39.0915922522
 20
6.8034193028
 10
38.3835073169
 20
8.4292245418
 10
37.6162615949
 20
10.0333554345
 10
36.7910322264
 20
11.6133508567
 10
35.9090853125
 20
13.166786714
 10
34.9717739727
 20
14.6912796606
 10
33.980536269
 20
16.1844907563
 10
32.9368929993
 20
17.6441290547
 10
31.8424453644
 20
19.0679551181
 10
30.6988725113
 20
20.4537844536
 10
29.5079289568
 20
21.7994908643
 10
28.271441896
 20
23.1030097117
 10
26.9913083986
 20
24.3623410831
 10
25.6694924984
 20
25.5755528601
 10
24.3080221803
 20
26.7407836828
 10
22.9089862684
 20
27.8562458059
 10
21.4745312217
 20
28.920227841
 10
20.0068578405
 20
29.9310973829
 10
18.5082178903
 20
30.8873035135
 10
16.9809106466
 20
31.7873791817
 10
15.4272793674
 20
32.6299434542
 10
13.8497076984
 20
33.4137036339
 10
12.2506160154
 20
34.1374572434
 10
10.6324577112
 20
34.8000938699
 10
8.9977154313
 20
35.4005968688
 10
7.3488972652
 20
35.9380449236
 10
5.688532898
 20
36.4116134591
 10
4.0191697296
 20
36.8205759069
 10
2.3433689662
 20
37.1643048198
 10
0.6637016908
 20
37.4422728346
 10
-1.0172550813
 20
37.6540534814
 10
-2.6969223567
 20
37.7993218374
 10
-4.3727231201
 20
37.8778550259
 10
-6.0420862885
 20
37.889532558
 10
-7.7024506557
 20
37.8343365177
 10
-9.3512688218
 20
37.7123515889
 10
-10.9860111017
 20
37.5237649259
 10
-12.6041694059
 20
37.2688658663
 10
-14.2032610889
 20
36.9480454868
 10
-15.7808327579
 20
36.5617960033
 10
-17.3344640371
 20
36.1107100157
 10
-18.8617712808
 20
35.5954795989
 10
-20.360411231
 20
35.0168952408
 10
-21.4999348842
 20
34.5258118947
  0
LWPOLYLINE
  5
34E
330
30D
100
AcDbEntity
  8
0
  6
Continuous
 62
     8
370
    25
100
AcDbPolyline
 90
        8
 70
   128
 43
0.0
 10
16.482420381
 20
-6.3008314107
 10
16.4892138103
 20
-6.4787730887
 10
16.5093330304
 20
-6.637894085
 10
16.542004871
 20
-6.7720794688
 10
16.5859737716
 20
-6.8761725711
 10
16.639550032
 20
-6.9461731523
 10
16.7006747466
 20
-6.9793911294
 10
16.7109737716
 20
-6.9811833702
  0
LWPOLYLINE
  5
34F
330
30D
100
AcDbEntity
  8
0
  6
Continuous
 62
     8
370
    25
100
AcDbPolyline
 90
        8
 70
   128
 43
0.0
 10
-26.7354687059
 20
-0.855889189
 10
-26.7286752766
 20
-1.033830867
 10
-26.7085560565
 20
-1.1929518633
 10
-26.6758842159
 20
-1.3271372471
 10
-26.6319153153
 20
-1.4312303494
 10
-26.5783390549
 20
-1.5012309306
 10
-26.5172143404
 20
-1.5344489077
 10
-26.5069153153
 20
-1.5362411484
  0
SPLINE
  5
351
330
30D
100
AcDbEntity
  8
0
  6
Continuous
 62
     8
370
    25
100
AcDbSpline
210
0.0
220
0.0
230
1.0
 70
     8
 71
     3
 72
    11
 73
     7
 74
     0
 42
0.000000001
 43
0.00000001
 40
0.0
 40
0.0
 40
0.0
 40
0.0
 40
0.2815579580248063
 40
0.5637583429442169
 40
0.8450560037601085
 40
1.0
 40
1.0
 40
1.0
 40
1.0
 10
40.89625132097429
 20
-5.278679282701419
 30
0.0
 10
40.9082747122134
 20
-5.383362919962706
 30
0.0
 10
40.93234892829695
 20
-5.592969049691057
 30
0.0
 10
41.01545642114624
 20
-5.820843973735227
 30
0.0
 10
41.10529726714038
 20
-5.950401252046253
 30
0.0
 10
41.16817592117124
 20
-5.952417283419463
 30
0.0
 10
41.19050911603272
 20
-5.9531333359845
 30
0.0
  0
LWPOLYLINE
  5
352
330
30D
100
AcDbEntity
  8
0
  6
Continuous
 62
     8
370
    25
100
AcDbPolyline
 90
        8
 70
   128
 43
0.0
 10
35.2831659204
 20
-4.5714969946
 10
35.2899593496
 20
-4.7494386727
 10
35.3100785697
 20
-4.9085596689
 10
35.3427504104
 20
-5.0427450527
 10
35.3867193109
 20
-5.146838155
 10
35.4402955713
 20
-5.2168387362
 10
35.5014202859
 20
-5.2500567133
 10
35.511719311
 20
-5.2518489541
  0
LWPOLYLINE
  5
353
330
30D
100
AcDbEntity
  8
0
  6
Continuous
 62
     8
370
    25
100
AcDbPolyline
 90
        8
 70
   128
 43
0.0
 10
-37.4044862635
 20
4.5862863848
 10
-37.3976928342
 20
4.4083447067
 10
-37.3775736141
 20
4.2492237105
 10
-37.3449017735
 20
4.1150383267
 10
-37.3009328729
 20
4.0109452244
 10
-37.2473566125
 20
3.9409446432
 10
-37.1862318979
 20
3.9077266661
 10
-37.1774447449
 20
3.9061354534
  0
SPLINE
  5
354
330
30D
100
AcDbEntity
  8
0
  6
Continuous
 62
     8
370
    25
100
AcDbSpline
210
0.0
220
0.0
230
1.0
 70
     8
 71
     3
 72
    11
 73
     7
 74
     0
 42
0.000000001
 43
0.00000001
 40
0.0
 40
0.0
 40
0.0
 40
0.0
 40
0.1921200411526226
 40
0.4701187913682173
 40
0.7462098862373274
 40
1.0
 40
1.0
 40
1.0
 40
1.0
 10
-43.0175716640473
 20
5.293468672918481
 30
0.0
 10
-43.02122057729513
 20
5.222968266382735
 30
0.0
 10
-43.03014948796778
 20
5.050453386036533
 30
0.0
 10
-43.00568109981757
 20
4.828004335958341
 30
0.0
 10
-42.94593186202281
 20
4.660275792272702
 30
0.0
 10
-42.882986535043
 20
4.636578948473368
 30
0.0
 10
-42.85283845386027
 20
4.625229188214501
 30
0.0
  0
LINE
  5
355
330
30D
100
AcDbEntity
  8
0
  6
Continuous
 62
     7
370
    25
100
AcDbLine
 10
-30.5223040377
 20
28.7107419608
 30
0.0
 11
-31.2294108187
 21
28.0871323965
 31
0.0
  0
LINE
  5
356
330
30D
100
AcDbEntity
  8
0
  6
Continuous
 62
     7
370
    25
100
AcDbLine
 10
-26.5069153153
 20
-1.5362411484
 30
0.0
 11
16.7109737716
 21
-6.9811833702
 31
0.0
  0
LINE
  5
357
330
30D
100
AcDbEntity
  8
0
  6
Continuous
 62
     7
370
    25
100
AcDbLine
 10
38.808619312
 20
7.5985681453
 30
0.0
 11
39.8907786096
 21
8.5529429387
 31
0.0
  0
LINE
  5
358
330
30D
100
AcDbEntity
  8
0
  6
Continuous
 62
     7
370
    25
100
AcDbLine
 10
35.511719311
 20
-5.2518489541
 30
0.0
 11
41.1886798527
 21
-5.9670787535
 31
0.0
  0
LINE
  5
359
330
30D
100
AcDbEntity
  8
0
  6
Continuous
 62
     7
370
    25
100
AcDbLine
 10
41.6495806686
 20
-5.821979391
 30
0.0
 11
42.3190698265
 21
-5.2315454518
 31
0.0
  0
LINE
  5
35A
330
30D
100
AcDbEntity
  8
0
  6
Continuous
 62
     7
370
    25
100
AcDbLine
 10
-42.8535321604
 20
4.6212446992
 30
0.0
 11
-37.1759328729
 21
3.9059344253
 31
0.0
  0
LINE
  5
35B
330
30D
100
AcDbEntity
  8
0
  6
Continuous
 62
     7
370
    25
100
AcDbLine
 10
-36.0561414363
 20
4.0742878812
 30
0.0
 11
-36.0588866033
 21
4.0437030472
 31
0.0
  0
LINE
  5
35C
330
30D
100
AcDbEntity
  8
0
  6
Continuous
 62
     7
370
    25
100
AcDbLine
 10
-43.017571664
 20
5.2934686729
 30
0.0
 11
-37.4044862635
 21
4.5862863848
 31
0.0
  0
LINE
  5
35D
330
30D
100
AcDbEntity
  8
0
  6
Continuous
 62
     7
370
    25
100
AcDbLine
 10
35.2831659204
 20
-4.5714969946
 30
0.0
 11
40.896251321
 21
-5.2786792827
 31
0.0
  0
LINE
  5
35E
330
30D
100
AcDbEntity
  8
0
  6
Continuous
 62
     7
370
    25
100
AcDbLine
 10
41.7819259352
 20
-5.4390617041
 30
0.0
 11
42.312256021
 21
-4.9713545308
 31
0.0
  0
LINE
  5
35F
330
30D
100
AcDbEntity
  8
0
  6
Continuous
 62
     7
370
    25
100
AcDbLine
 10
-31.0036685473
 20
4.9468348402
 30
0.0
 11
22.1648337845
 21
-1.7517668113
 31
0.0
  0
LINE
  5
360
330
30D
100
AcDbEntity
  8
0
  6
Continuous
 62
     7
370
    25
100
AcDbLine
 10
16.7109737716
 20
-6.9811833702
 30
0.0
 11
16.7201370443
 21
-6.9819548843
 31
0.0
  0
LINE
  5
361
330
30D
100
AcDbEntity
  8
0
  6
Continuous
 62
     7
370
    25
100
AcDbLine
 10
-26.171325083
 20
1.7196822428
 30
0.0
 11
16.3324903204
 21
-3.6352951511
 31
0.0
  0
LINE
  5
362
330
30D
100
AcDbEntity
  8
0
  6
Continuous
 62
     7
370
    25
100
AcDbLine
 10
20.6909755245
 20
-3.1081554722
 30
0.0
 11
-29.9440238496
 21
3.2712548093
 31
0.0
  0
LINE
  5
363
330
30D
100
AcDbEntity
  8
0
  6
Continuous
 62
     7
370
    25
100
AcDbLine
 10
16.1253835392
 20
-5.1512794971
 30
0.0
 11
-26.3784318641
 21
0.2036978968
 31
0.0
  0
LINE
  5
364
330
30D
100
AcDbEntity
  8
0
  6
Continuous
 62
     7
370
    25
100
AcDbLine
 10
-26.7354687059
 20
-0.855889189
 30
0.0
 11
16.482420381
 21
-6.3008314107
 31
0.0
  0
ARC
  5
365
330
30D
100
AcDbEntity
  8
0
  6
Continuous
 62
     7
370
    25
100
AcDbCircle
 10
-8.0220327545
 20
-13.281394888
 30
0.0
 40
25.47933456608307
100
AcDbArc
 50
15.9006193515
 51
18.6076980618
  0
ARC
  5
366
330
30D
100
AcDbEntity
  8
0
  6
Continuous
 62
     7
370
    25
100
AcDbCircle
 10
-7.2111033887
 20
-6.8448425903
 30
0.0
 40
20.42225266423262
100
AcDbArc
 50
159.8096453183
 51
162.9469956005
  0
ARC
  5
367
330
30D
100
AcDbEntity
  8
0
  6
Continuous
 62
     7
370
    25
100
AcDbCircle
 10
-4.0901903129
 20
-2.1309005766
 30
0.0
 40
32.56254527322007
100
AcDbArc
 50
163.1330563128
 51
168.5281582642
  0
ARC
  5
368
330
30D
100
AcDbEntity
  8
0
  6
Continuous
 62
     7
370
    25
100
AcDbCircle
 10
-7.4907833566
 20
1.1692823799
 30
0.0
 40
35.8882708423488
100
AcDbArc
 50
115.1336780141
 51
148.1660980394
  0
ARC
  5
369
330
30D
100
AcDbEntity
  8
0
  6
Continuous
 62
     7
370
    25
100
AcDbCircle
 10
40.9160726394
 20
-4.0614646874
 30
0.0
 40
1.217375971391748
100
AcDbArc
 50
269.067068761
 51
300.5761551429
  0
ARC
  5
36A
330
30D
100
AcDbEntity
  8
0
  6
Continuous
 62
     7
370
    25
100
AcDbCircle
 10
-6.7194450287
 20
1.6862880961
 30
0.0
 40
36.01245900643354
100
AcDbArc
 50
114.2316686717
 51
131.3732649135
  0
ARC
  5
36B
330
30D
100
AcDbEntity
  8
0
  6
Continuous
 62
     7
370
    25
100
AcDbCircle
 10
-29.4694391229
 20
7.8929484154
 30
0.0
 40
3.321663005850203
100
AcDbArc
 50
224.4163669208
 51
242.4911294262
  0
ARC
  5
36C
330
30D
100
AcDbEntity
  8
0
  6
Continuous
 62
     7
370
    25
100
AcDbCircle
 10
19.2535383531
 20
8.1733535308
 30
0.0
 40
10.34329033210148
100
AcDbArc
 50
286.3477824443
 51
292.6627980688
  0
ARC
  5
36D
330
30D
100
AcDbEntity
  8
0
  6
Continuous
 62
     7
370
    25
100
AcDbCircle
 10
41.0713606334
 20
3.5950477237
 30
0.0
 40
21.45444080544908
100
AcDbArc
 50
198.2062752455
 51
202.0182941793
  0
ARC
  5
36E
330
30D
100
AcDbEntity
  8
0
  6
Continuous
 62
     7
370
    25
100
AcDbCircle
 10
21.880886406
 20
-5.1654305631
 30
0.0
 40
5.755520263396183
100
AcDbArc
 50
164.5822205436
 51
179.8591270399
  0
ARC
  5
36F
330
30D
100
AcDbEntity
  8
0
  6
Continuous
 62
     7
370
    25
100
AcDbCircle
 10
-20.6229289973
 20
0.1895468308
 30
0.0
 40
5.75552026339673
100
AcDbArc
 50
164.5822205436
 51
179.8591270399
  0
ARC
  5
370
330
30D
100
AcDbEntity
  8
0
  6
Continuous
 62
     7
370
    25
100
AcDbCircle
 10
37.6783972415
 20
10.6078974174
 30
0.0
 40
3.019514733728822
100
AcDbArc
 50
317.1127485885
 51
123.8786657419
  0
ARC
  5
371
330
30D
100
AcDbEntity
  8
0
  6
Continuous
 62
     7
370
    25
100
AcDbCircle
 10
-27.2345941527
 20
0.5468846217
 30
0.0
 40
3.842291269744596
100
AcDbArc
 50
134.8424629317
 51
156.2448182808
  0
ARC
  5
372
330
30D
100
AcDbEntity
  8
0
  6
Continuous
 62
     8
370
    25
100
AcDbCircle
 10
32.1506049539
 20
-4.8111508064
 30
0.0
 40
0.7922426328612551
100
AcDbArc
 50
298.916432263
 51
14.2840140462
  0
ARC
  5
373
330
30D
100
AcDbEntity
  8
0
  6
Continuous
 62
     8
370
    25
100
AcDbCircle
 10
41.3649775679
 20
-5.5092892994
 30
0.0
 40
0.4228213052709175
100
AcDbArc
 50
312.3470257672
 51
9.5607261832
  0
VIEWPORT
  5
382
330
30D
100
AcDbEntity
  8
0
100
AcDbViewport
 10
0.0
 20
0.0
 30
0.0
 40
205.6
 41
156.0
 68
     1
 69
     1
 12
0.0
 22
-20.0
 13
0.0
 23
0.0
 14
10.0
 24
10.0
 15
10.0
 25
10.0
 16
0.0
 26
0.0
 36
1.0
 17
0.0
 27
0.0
 37
0.0
 42
50.0
 43
0.0
 44
0.0
 45
70.3156390604
 50
0.0
 51
0.0
 72
   100
 90
   557152
  1

281
     0
 71
     1
 74
     0
110
0.0
120
0.0
130
0.0
111
1.0
121
0.0
131
0.0
112
0.0
122
1.0
132
0.0
 79
     0
146
0.0
  0
ENDBLK
  5
310
330
30D
100
AcDbEntity
  8
0
100
AcDbBlockEnd
  0
ENDSEC
  0
SECTION
  2
ENTITIES
  0
SPLINE
  5
73
330
1F
100
AcDbEntity
  8
0
  6
Continuous
 62
     7
370
    25
100
AcDbSpline
210
0.0
220
0.0
230
1.0
 70
     8
 71
     3
 72
    26
 73
    22
 74
     0
 42
0.000000001
 43
0.00000001
 40
0.0
 40
0.0
 40
0.0
 40
0.0
 40
0.1249999999999996
 40
0.1249999999999996
 40
0.2499999999999992
 40
0.2499999999999992
 40
0.3124999999999989
 40
0.3124999999999989
 40
0.3749999999999988
 40
0.3749999999999988
 40
0.4999999999999989
 40
0.4999999999999989
 40
0.562499999999999
 40
0.562499999999999
 40
0.624999999999999
 40
0.624999999999999
 40
0.7499999999999993
 40
0.7499999999999993
 40
0.8749999999999998
 40
0.8749999999999998
 40
1.0
 40
1.0
 40
1.0
 40
1.0
 10
-23.10093341966136
 20
-1.000000000000001
 30
0.0
 10
-23.86855751227385
 20
-1.015083637822812
 30
0.0
 10
-24.62636872092527
 20
-1.028740226654411
 30
0.0
 10
-26.12282228421634
 20
-1.05386719428956
 30
0.0
 10
-26.86146779451627
 20
-1.065334648494794
 30
0.0
 10
-27.95438625990803
 20
-1.08123844000322
 30
0.0
 10
-28.31634086745236
 20
-1.086322638295337
 30
0.0
 10
-29.02211444333731
 20
-1.095932454372246
 30
0.0
 10
-29.36761350139905
 20
-1.100483011597892
 30
0.0
 10
-30.38223191841025
 20
-1.113467900194093
 30
0.0
 10
-31.02961008840016
 20
-1.121240536874114
 30
0.0
 10
-31.95583270176522
 20
-1.131843921358764
 30
0.0
 10
-32.25838938165091
 20
-1.135215316323334
 30
0.0
 10
-32.84069988809948
 20
-1.141557114861677
 30
0.0
 10
-33.11998455168622
 20
-1.144523443024219
 30
0.0
 10
-33.92300857121532
 20
-1.152881501499253
 30
0.0
 10
-34.41213920092855
 20
-1.157737105445367
 30
0.0
 10
-35.29670606892362
 20
-1.166261148841035
 30
0.0
 10
-35.69331717100786
 20
-1.169937926953003
 30
0.0
 10
-36.36837580727185
 20
-1.176065287321535
 30
0.0
 10
-36.64904016617484
 20
-1.178537513164549
 30
0.0
 10
-36.86841920550597
 20
-1.180447665410547
 30
0.0
  0
SPLINE
  5
75
330
1F
100
AcDbEntity
  8
0
  6
Continuous
 62
     7
370
    25
100
AcDbSpline
210
0.0
220
0.0
230
1.0
 70
     8
 71
     3
 72
    12
 73
     8
 74
     0
 42
0.000000001
 43
0.00000001
 40
0.0
 40
0.0
 40
0.0
 40
0.0
 40
0.25
 40
0.25
 40
0.5
 40
0.5
 40
1.0
 40
1.0
 40
1.0
 40
1.0
 10
-27.75939045314573
 20
-3.227597149796785
 30
0.0
 10
-27.37699947593135
 20
-3.069828929571868
 30
0.0
 10
-26.98224734025685
 20
-2.929649049747525
 30
0.0
 10
-26.16841431047612
 20
-2.683580526375122
 30
0.0
 10
-25.74741857530859
 20
-2.577459966808082
 30
0.0
 10
-24.47426705095147
 20
-2.315148692137139
 30
0.0
 10
-23.60562942604701
 20
-2.212079460127567
 30
0.0
 10
-22.71924498068514
 20
-2.171572875253821
 30
0.0
  0
SPLINE
  5
76
330
1F
100
AcDbEntity
  8
0
  6
Continuous
 62
     7
370
    25
100
AcDbSpline
210
0.0
220
0.0
230
1.0
 70
     8
 71
     3
 72
    18
 73
    14
 74
     0
 42
0.000000001
 43
0.00000001
 40
0.0
 40
0.0
 40
0.0
 40
0.0
 40
0.2500000000000002
 40
0.2500000000000002
 40
0.5000000000000004
 40
0.5000000000000004
 40
0.6250000000000003
 40
0.6250000000000003
 40
0.7500000000000002
 40
0.7500000000000002
 40
0.8750000000000001
 40
0.8750000000000001
 40
1.0
 40
1.0
 40
1.0
 40
1.0
 10
-27.75939045314573
 20
-3.227597149796785
 30
0.0
 10
-28.06028970920497
 20
-3.351743227827417
 30
0.0
 10
-28.34488748505485
 20
-3.496789519794763
 30
0.0
 10
-28.86738012704781
 20
-3.85846582338234
 30
0.0
 10
-29.09946946825428
 20
-4.070854179597429
 30
0.0
 10
-29.37063365583817
 20
-4.464275578119435
 30
0.0
 10
-29.4456802803649
 20
-4.604841064121831
 30
0.0
 10
-29.55921698751131
 20
-4.909802782258197
 30
0.0
 10
-29.59635759923115
 20
-5.072601909190355
 30
0.0
 10
-29.62534526979278
 20
-5.406263345327178
 30
0.0
 10
-29.61697934556626
 20
-5.581778046806459
 30
0.0
 10
-29.55831937425328
 20
-5.921095111659027
 30
0.0
 10
-29.50892835059275
 20
-6.08695419183308
 30
0.0
 10
-29.44197559161469
 20
-6.24949405124766
 30
0.0
  0
SPLINE
  5
78
330
1F
100
AcDbEntity
  8
0
  6
Continuous
 62
     7
370
    25
100
AcDbSpline
210
0.0
220
0.0
230
1.0
 70
     8
 71
     3
 72
    18
 73
    14
 74
     0
 42
0.000000001
 43
0.00000001
 40
0.0
 40
0.0
 40
0.0
 40
0.0
 40
0.1250000000000002
 40
0.1250000000000002
 40
0.2500000000000005
 40
0.2500000000000005
 40
0.3750000000000008
 40
0.3750000000000008
 40
0.500000000000001
 40
0.500000000000001
 40
0.7500000000000004
 40
0.7500000000000004
 40
1.0
 40
1.0
 40
1.0
 40
1.0
 10
29.44197559161469
 20
-6.249494051247658
 30
0.0
 10
29.50899897617009
 20
-6.086782735546786
 30
0.0
 10
29.55873437946647
 20
-5.91966907887603
 30
0.0
 10
29.61727192066684
 20
-5.579099283014229
 30
0.0
 10
29.62529981770266
 20
-5.405240322257816
 30
0.0
 10
29.59631871227031
 20
-5.072655609851912
 30
0.0
 10
29.55882353836579
 20
-4.908588174777264
 30
0.0
 10
29.44563510201664
 20
-4.604878122919398
 30
0.0
 10
29.37066142668229
 20
-4.464246240938951
 30
0.0
 10
29.09853092001769
 20
-4.069632074189182
 30
0.0
 10
28.86635875733459
 20
-3.857674336850182
 30
0.0
 10
28.34467069658182
 20
-3.496724137659678
 30
0.0
 10
28.06028574457414
 20
-3.351741592086024
 30
0.0
 10
27.75939045314573
 20
-3.227597149796781
 30
0.0
  0
SPLINE
  5
79
330
1F
100
AcDbEntity
  8
0
  6
Continuous
 62
     7
370
    25
100
AcDbSpline
210
0.0
220
0.0
230
1.0
 70
     8
 71
     3
 72
    12
 73
     8
 74
     0
 42
0.000000001
 43
0.00000001
 40
0.0
 40
0.0
 40
0.0
 40
0.0
 40
0.5
 40
0.5
 40
0.75
 40
0.75
 40
1.0
 40
1.0
 40
1.0
 40
1.0
 10
22.71924498068513
 20
-2.171572875253821
 30
0.0
 10
23.605629426047
 20
-2.212079460127567
 30
0.0
 10
24.47426705095145
 20
-2.315148692137139
 30
0.0
 10
25.7474185753086
 20
-2.577459966808082
 30
0.0
 10
26.16841431047612
 20
-2.683580526375122
 30
0.0
 10
26.98224734025687
 20
-2.929649049747525
 30
0.0
 10
27.37699947593134
 20
-3.069828929571868
 30
0.0
 10
27.75939045314573
 20
-3.227597149796785
 30
0.0
  0
SPLINE
  5
7B
330
1F
100
AcDbEntity
  8
0
  6
Continuous
 62
     7
370
    25
100
AcDbSpline
210
0.0
220
0.0
230
1.0
 70
     8
 71
     3
 72
    26
 73
    22
 74
     0
 42
0.000000001
 43
0.00000001
 40
0.0
 40
0.0
 40
0.0
 40
0.0
 40
0.1249999999999996
 40
0.1249999999999996
 40
0.2499999999999992
 40
0.2499999999999992
 40
0.3749999999999988
 40
0.3749999999999988
 40
0.4999999999999983
 40
0.4999999999999983
 40
0.5624999999999981
 40
0.5624999999999981
 40
0.6249999999999979
 40
0.6249999999999979
 40
0.749999999999998
 40
0.749999999999998
 40
0.8124999999999984
 40
0.8124999999999984
 40
0.8749999999999988
 40
0.8749999999999988
 40
1.0
 40
1.0
 40
1.0
 40
1.0
 10
36.86841920550597
 20
-1.180447665410547
 30
0.0
 10
36.64919306621029
 20
-1.178538844478366
 30
0.0
 10
36.37214828848163
 20
-1.176098134866997
 30
0.0
 10
35.70774784251472
 20
-1.170070267771568
 30
0.0
 10
35.32037902098084
 20
-1.16648438843886
 30
0.0
 10
34.43166131070119
 20
-1.157929879158168
 30
0.0
 10
33.93966715733541
 20
-1.153049225564601
 30
0.0
 10
32.8731599222948
 20
-1.141959902156469
 30
0.0
 10
32.29733513130815
 20
-1.135740906137921
 30
0.0
 10
31.36825772673577
 20
-1.125123178935167
 30
0.0
 10
31.04862827768776
 20
-1.121377837164834
 30
0.0
 10
30.3986992147254
 20
-1.113537994013487
 30
0.0
 10
30.06716280534097
 20
-1.109429549421455
 30
0.0
 10
29.05325239533765
 20
-1.096471577291668
 30
0.0
 10
28.35169162078807
 20
-1.086996819277826
 30
0.0
 10
27.26044379317205
 20
-1.07115116220962
 30
0.0
 10
26.8898949591664
 20
-1.065589333720553
 30
0.0
 10
26.14476494103824
 20
-1.053981842696141
 30
0.0
 10
25.76907892622494
 20
-1.047920690803464
 30
0.0
 10
24.63269881352918
 20
-1.028859691612847
 30
0.0
 10
23.86820041842996
 20
-1.015076621010465
 30
0.0
 10
23.10093341966137
 20
-1.000000000000001
 30
0.0
  0
SPLINE
  5
7E
330
1F
100
AcDbEntity
  8
0
  6
Continuous
 62
     7
370
    25
100
AcDbSpline
210
0.0
220
0.0
230
1.0
 70
    24
 71
     3
 72
    24
 73
    20
 74
     0
 42
0.000000001
 43
0.00000001
 40
0.0
 40
0.0
 40
0.0
 40
0.0
 40
0.1249999999999992
 40
0.1249999999999992
 40
0.2499999999999983
 40
0.2499999999999983
 40
0.3749999999999976
 40
0.3749999999999976
 40
0.4374999999999973
 40
0.4374999999999973
 40
0.4999999999999971
 40
0.4999999999999971
 40
0.6249999999999972
 40
0.6249999999999972
 40
0.6874999999999974
 40
0.6874999999999974
 40
0.7499999999999976
 40
0.7499999999999976
 40
1.0
 40
1.0
 40
1.0
 40
1.0
 10
-35.92590285151105
 20
0.0
 30
0.0
 10
-35.72130193637894
 20
0.0
 30
0.0
 10
-35.46180478859057
 20
0.0
 30
0.0
 10
-34.83580097676529
 20
0.0
 30
0.0
 10
-34.4659603956686
 20
0.0
 30
0.0
 10
-33.6414017988623
 20
0.0
 30
0.0
 10
-33.18538878123247
 20
0.0
 30
0.0
 10
-32.43669790932573
 20
0.0
 30
0.0
 10
-32.17630392167969
 20
0.0
 30
0.0
 10
-31.63337650356171
 20
0.0
 30
0.0
 10
-31.35131774545447
 20
0.0
 30
0.0
 10
-30.48787673337285
 20
0.0
 30
0.0
 10
-29.88442656830826
 20
0.0
 30
0.0
 10
-28.93876993722656
 20
0.0
 30
0.0
 10
-28.61677223787743
 20
0.0
 30
0.0
 10
-27.95905381246376
 20
0.0
 30
0.0
 10
-27.62177729980893
 20
0.0
 30
0.0
 10
-25.92478521800837
 20
0.0
 30
0.0
 10
-24.53063561284363
 20
0.0
 30
0.0
 10
-23.10093341966136
 20
0.0
 30
0.0
  0
SPLINE
  5
81
330
1F
100
AcDbEntity
  8
0
  6
Continuous
 62
     7
370
    25
100
AcDbSpline
210
0.0
220
0.0
230
1.0
 70
    24
 71
     3
 72
    26
 73
    22
 74
     0
 42
0.000000001
 43
0.00000001
 40
0.0
 40
0.0
 40
0.0
 40
0.0
 40
0.1250000000000008
 40
0.1250000000000008
 40
0.187500000000001
 40
0.187500000000001
 40
0.2500000000000011
 40
0.2500000000000011
 40
0.3750000000000013
 40
0.3750000000000013
 40
0.4375000000000011
 40
0.4375000000000011
 40
0.500000000000001
 40
0.500000000000001
 40
0.6250000000000007
 40
0.6250000000000007
 40
0.7500000000000004
 40
0.7500000000000004
 40
0.8750000000000002
 40
0.8750000000000002
 40
1.0
 40
1.0
 40
1.0
 40
1.0
 10
23.10093341966137
 20
0.0
 30
0.0
 10
23.81564772487564
 20
0.0
 30
0.0
 10
24.52281535095925
 20
0.0
 30
0.0
 10
25.57233187196486
 20
0.0
 30
0.0
 10
25.92029053157356
 20
0.0
 30
0.0
 10
26.61236509233316
 20
0.0
 30
0.0
 10
26.95784000918241
 20
0.0
 30
0.0
 10
27.97564056510077
 20
0.0
 30
0.0
 10
28.63008476152397
 20
0.0
 30
0.0
 10
29.57601816395054
 20
0.0
 30
0.0
 10
29.88534755162519
 20
0.0
 30
0.0
 10
30.49178162396068
 20
0.0
 30
0.0
 10
30.7899876076716
 20
0.0
 30
0.0
 10
31.65746015822643
 20
0.0
 30
0.0
 10
32.19513188490891
 20
0.0
 30
0.0
 10
33.19101517285824
 20
0.0
 30
0.0
 10
33.65034658536679
 20
0.0
 30
0.0
 10
34.48053017522139
 20
0.0
 30
0.0
 10
34.84232599904629
 20
0.0
 30
0.0
 10
35.46273753482428
 20
0.0
 30
0.0
 10
35.72136622635564
 20
0.0
 30
0.0
 10
35.92590285151105
 20
0.0
 30
0.0
  0
SPLINE
  5
84
330
1F
100
AcDbEntity
  8
0
  6
Continuous
 62
     7
370
    25
100
AcDbSpline
210
0.0
220
0.0
230
1.0
 70
     8
 71
     3
 72
    12
 73
     8
 74
     0
 42
0.000000001
 43
0.00000001
 40
0.0
 40
0.0
 40
0.0
 40
0.0
 40
0.2499999999999994
 40
0.2499999999999994
 40
0.4999999999999989
 40
0.4999999999999989
 40
1.0
 40
1.0
 40
1.0
 40
1.0
 10
27.06554563300999
 20
-4.414213562373106
 30
0.0
 10
26.7374747937566
 20
-4.27493323290121
 30
0.0
 10
26.39800312789936
 20
-4.153032376889645
 30
0.0
 10
25.6964387822812
 20
-3.943714244386231
 30
0.0
 10
25.3324538415639
 20
-3.856135137672207
 30
0.0
 10
24.23299496597348
 20
-3.650270788960682
 30
0.0
 10
23.48345959577829
 20
-3.585786437626914
 30
0.0
 10
22.71924498068513
 20
-3.585786437626914
 30
0.0
  0
SPLINE
  5
86
330
1F
100
AcDbEntity
  8
0
  6
Continuous
 62
     7
370
    25
100
AcDbSpline
210
0.0
220
0.0
230
1.0
 70
     8
 71
     3
 72
    12
 73
     8
 74
     0
 42
0.000000001
 43
0.00000001
 40
0.0
 40
0.0
 40
0.0
 40
0.0
 40
0.500000000000001
 40
0.500000000000001
 40
0.7500000000000004
 40
0.7500000000000004
 40
1.0
 40
1.0
 40
1.0
 40
1.0
 10
-22.71924498068514
 20
-3.585786437626914
 30
0.0
 10
-23.4834595957783
 20
-3.585786437626918
 30
0.0
 10
-24.23299496597348
 20
-3.650270788960682
 30
0.0
 10
-25.3324538415639
 20
-3.856135137672204
 30
0.0
 10
-25.69643878228121
 20
-3.943714244386234
 30
0.0
 10
-26.39800312789935
 20
-4.153032376889642
 30
0.0
 10
-26.7374747937566
 20
-4.27493323290121
 30
0.0
 10
-27.06554563301
 20
-4.414213562373108
 30
0.0
  0
SPLINE
  5
8E
330
1F
100
AcDbEntity
  8
0
  6
Continuous
 62
     7
370
    25
100
AcDbSpline
210
0.0
220
0.0
230
1.0
 70
     8
 71
     3
 72
    18
 73
    14
 74
     0
 42
0.000000001
 43
0.00000001
 40
0.0
 40
0.0
 40
0.0
 40
0.0
 40
0.1250000000000002
 40
0.1250000000000002
 40
0.2500000000000003
 40
0.2500000000000003
 40
0.3750000000000005
 40
0.3750000000000005
 40
0.5000000000000007
 40
0.5000000000000007
 40
0.7500000000000003
 40
0.7500000000000003
 40
1.0
 40
1.0
 40
1.0
 40
1.0
 10
-28.41975992668442
 20
-5.828427124746201
 30
0.0
 10
-28.48675530901188
 20
-5.747105457117082
 30
0.0
 10
-28.54365615124584
 20
-5.656902027074222
 30
0.0
 10
-28.6097137105317
 20
-5.459575942203617
 30
0.0
 10
-28.61511085832726
 20
-5.352211451094137
 30
0.0
 10
-28.56139028939236
 20
-5.158966687901025
 30
0.0
 10
-28.50512844457219
 20
-5.07284537495176
 30
0.0
 10
-28.3680583039443
 20
-4.927582783053493
 30
0.0
 10
-28.28728098775111
 20
-4.866952054768229
 30
0.0
 10
-28.03400113520377
 20
-4.70964588926767
 30
0.0
 10
-27.84671852711853
 20
-4.633567545040148
 30
0.0
 10
-27.46274044782075
 20
-4.506551122658641
 30
0.0
 10
-27.26566761122482
 20
-4.456693800976087
 30
0.0
 10
-27.06554563300999
 20
-4.414213562373105
 30
0.0
  0
SPLINE
  5
91
330
1F
100
AcDbEntity
  8
0
  6
Continuous
 62
     7
370
    25
100
AcDbSpline
210
0.0
220
0.0
230
1.0
 70
     8
 71
     3
 72
    18
 73
    14
 74
     0
 42
0.000000001
 43
0.00000001
 40
0.0
 40
0.0
 40
0.0
 40
0.0
 40
0.2499999999999994
 40
0.2499999999999994
 40
0.4999999999999989
 40
0.4999999999999989
 40
0.6249999999999991
 40
0.6249999999999991
 40
0.7499999999999994
 40
0.7499999999999994
 40
0.8749999999999997
 40
0.8749999999999997
 40
1.0
 40
1.0
 40
1.0
 40
1.0
 10
27.06554563300999
 20
-4.414213562373106
 30
0.0
 10
27.26557884781724
 20
-4.456674959013966
 30
0.0
 10
27.46251287950369
 20
-4.506500250498918
 30
0.0
 10
27.84606702763972
 20
-4.633327685525825
 30
0.0
 10
28.03379839882892
 20
-4.709592563307726
 30
0.0
 10
28.28674758553559
 20
-4.866584613248915
 30
0.0
 10
28.36757211606369
 20
-4.927238084942217
 30
0.0
 10
28.50424740556087
 20
-5.071742828585601
 30
0.0
 10
28.56114709954379
 20
-5.158453937711561
 30
0.0
 10
28.61509770597194
 20
-5.351803800992074
 30
0.0
 10
28.60968102777814
 20
-5.459587285854948
 30
0.0
 10
28.54379413247201
 20
-5.65657599978103
 30
0.0
 10
28.48682513911395
 20
-5.747020694553569
 30
0.0
 10
28.41975992668442
 20
-5.828427124746201
 30
0.0
  0
SPLINE
  5
94
330
1F
100
AcDbEntity
  8
0
  6
Continuous
 62
     7
370
    25
100
AcDbSpline
210
0.0
220
0.0
230
1.0
 70
     8
 71
     3
 72
    12
 73
     8
 74
     0
 42
0.000000001
 43
0.00000001
 40
0.0
 40
0.0
 40
0.0
 40
0.0
 40
0.4999999999999969
 40
0.4999999999999969
 40
0.7499999999999984
 40
0.7499999999999984
 40
1.0
 40
1.0
 40
1.0
 40
1.0
 10
38.85318438742329
 20
-1.000000000000001
 30
0.0
 10
38.4126459940351
 20
-1.037243194641092
 30
0.0
 10
37.98080448333633
 20
-1.075672933485677
 30
0.0
 10
37.44471377616139
 20
-1.125207100310551
 30
0.0
 10
37.28935034961312
 20
-1.139887019257432
 30
0.0
 10
37.03033102393392
 20
-1.164657348438298
 30
0.0
 10
36.93276693799038
 20
-1.174157962632858
 30
0.0
 10
36.86841920550597
 20
-1.180447665410547
 30
0.0
  0
SPLINE
  5
96
330
1F
100
AcDbEntity
  8
0
  6
Continuous
 62
     7
370
    25
100
AcDbSpline
210
0.0
220
0.0
230
1.0
 70
     8
 71
     3
 72
    12
 73
     8
 74
     0
 42
0.000000001
 43
0.00000001
 40
0.0
 40
0.0
 40
0.0
 40
0.0
 40
0.4999999999999968
 40
0.4999999999999968
 40
0.7499999999999983
 40
0.7499999999999983
 40
1.0
 40
1.0
 40
1.0
 40
1.0
 10
-36.86841920550597
 20
-1.180447665410547
 30
0.0
 10
-36.99703051502174
 20
-1.167876485673954
 30
0.0
 10
-37.268801650665
 20
-1.141457524021269
 30
0.0
 10
-37.80298257411084
 20
-1.09210531324138
 30
0.0
 10
-37.99863604223477
 20
-1.074357161533812
 30
0.0
 10
-38.41681292255041
 20
-1.037331399413297
 30
0.0
 10
-38.63304343264279
 20
-1.018610755726211
 30
0.0
 10
-38.85318438742329
 20
-1.000000000000001
 30
0.0
  0
SPLINE
  5
98
330
1F
100
AcDbEntity
  8
0
  6
Continuous
 62
     7
370
    25
100
AcDbSpline
210
0.0
220
0.0
230
1.0
 70
    24
 71
     3
 72
    18
 73
    14
 74
     0
 42
0.000000001
 43
0.00000001
 40
0.0
 40
0.0
 40
0.0
 40
0.0
 40
0.2499999999999978
 40
0.2499999999999978
 40
0.4999999999999956
 40
0.4999999999999956
 40
0.6249999999999967
 40
0.6249999999999967
 40
0.7499999999999978
 40
0.7499999999999978
 40
0.8749999999999989
 40
0.8749999999999989
 40
1.0
 40
1.0
 40
1.0
 40
1.0
 10
-38.85318438742329
 20
0.0
 30
0.0
 10
-38.52566961616174
 20
0.0
 30
0.0
 10
-38.20676830854489
 20
0.0
 30
0.0
 10
-37.58605357456951
 20
0.0
 30
0.0
 10
-37.29647857689682
 20
0.0
 30
0.0
 10
-36.90249282801822
 20
0.0
 30
0.0
 10
-36.77805422366676
 20
0.0
 30
0.0
 10
-36.5509479026323
 20
0.0
 30
0.0
 10
-36.44705152215565
 20
0.0
 30
0.0
 10
-36.25896991686483
 20
0.0
 30
0.0
 10
-36.17471740981659
 20
0.0
 30
0.0
 10
-36.0320270579482
 20
0.0
 30
0.0
 10
-35.97274670167727
 20
0.0
 30
0.0
 10
-35.92590285151105
 20
0.0
 30
0.0
  0
SPLINE
  5
9A
330
1F
100
AcDbEntity
  8
0
  6
Continuous
 62
     7
370
    25
100
AcDbSpline
210
0.0
220
0.0
230
1.0
 70
    24
 71
     3
 72
    16
 73
    12
 74
     0
 42
0.000000001
 43
0.00000001
 40
0.0
 40
0.0
 40
0.0
 40
0.0
 40
0.25
 40
0.25
 40
0.5
 40
0.5
 40
0.75
 40
0.75
 40
0.875
 40
0.875
 40
1.0
 40
1.0
 40
1.0
 40
1.0
 10
35.92590285151105
 20
0.0
 30
0.0
 10
36.01957898302332
 20
0.0
 30
0.0
 10
36.16142113697013
 20
0.0
 30
0.0
 10
36.53947595647299
 20
0.0
 30
0.0
 10
36.76732066697817
 20
0.0
 30
0.0
 10
37.29359254090064
 20
0.0
 30
0.0
 10
37.58328827376091
 20
0.0
 30
0.0
 10
38.04751581744207
 20
0.0
 30
0.0
 10
38.20713175802939
 20
0.0
 30
0.0
 10
38.52751383266626
 20
0.0
 30
0.0
 10
38.68945107753547
 20
0.0
 30
0.0
 10
38.8531843874233
 20
0.0
 30
0.0
  0
SPLINE
  5
9B
330
1F
100
AcDbEntity
  8
0
  6
Continuous
 62
     7
370
    25
100
AcDbSpline
210
0.0
220
0.0
230
1.0
 70
     8
 71
     3
 72
    10
 73
     6
 74
     0
 42
0.000000001
 43
0.00000001
 40
0.0
 40
0.0
 40
0.0
 40
0.0
 40
0.5
 40
0.5
 40
1.0
 40
1.0
 40
1.0
 40
1.0
 10
-45.42268660414503
 20
-0.5702775290957924
 30
0.0
 10
-45.42268660414502
 20
-0.5702775290957924
 30
0.0
 10
-45.41475267472872
 20
-0.6266106544190568
 30
0.0
 10
-45.38747386894659
 20
-0.8143007363336334
 30
0.0
 10
-45.36828102845094
 20
-0.9438430850303992
 30
0.0
 10
-45.34804807608658
 20
-1.075786791543281
 30
0.0
  0
SPLINE
  5
9D
330
1F
100
AcDbEntity
  8
0
  6
Continuous
 62
     7
370
    25
100
AcDbSpline
210
0.0
220
0.0
230
1.0
 70
     8
 71
     3
 72
    12
 73
     8
 74
     0
 42
0.000000001
 43
0.00000001
 40
0.0
 40
0.0
 40
0.0
 40
0.0
 40
0.2499999999999997
 40
0.2499999999999997
 40
0.4999999999999993
 40
0.4999999999999993
 40
1.0
 40
1.0
 40
1.0
 40
1.0
 10
-44.85382508772246
 20
-1.000000000000001
 30
0.0
 10
-44.86393499136231
 20
-0.8681420155882795
 30
0.0
 10
-44.87369745744029
 20
-0.7388226840658665
 30
0.0
 10
-44.89172555808412
 20
-0.4968170573412742
 30
0.0
 10
-44.89985076586841
 20
-0.38601874422
 30
0.0
 10
-44.91997889550806
 20
-0.1089640929779027
 30
0.0
 10
-44.92765017224917
 20
0.0
 30
0.0
 10
-44.92765017224916
 20
0.0
 30
0.0
  0
SPLINE
  5
A0
330
1F
100
AcDbEntity
  8
0
  6
Continuous
 62
     7
370
    25
100
AcDbSpline
210
0.0
220
0.0
230
1.0
 70
     8
 71
     3
 72
    14
 73
    10
 74
     0
 42
0.000000001
 43
0.00000001
 40
0.0
 40
0.0
 40
0.0
 40
0.0
 40
0.25
 40
0.25
 40
0.5
 40
0.5
 40
0.75
 40
0.75
 40
1.0
 40
1.0
 40
1.0
 40
1.0
 10
44.92765017224916
 20
0.0
 30
0.0
 10
44.92765017224915
 20
0.0
 30
0.0
 10
44.9258042109543
 20
-0.0260797118540358
 30
0.0
 10
44.91862942525703
 20
-0.1265451583602091
 30
0.0
 10
44.91329683580297
 20
-0.2009359513455086
 30
0.0
 10
44.89989750419932
 20
-0.3853790798027737
 30
0.0
 10
44.89172212890094
 20
-0.4968554941371141
 30
0.0
 10
44.87382370776199
 20
-0.7371354688636422
 30
0.0
 10
44.86393290731096
 20
-0.8681691967385962
 30
0.0
 10
44.85382508772246
 20
-1.000000000000001
 30
0.0
  0
SPLINE
  5
A2
330
1F
100
AcDbEntity
  8
0
  6
Continuous
 62
     7
370
    25
100
AcDbSpline
210
0.0
220
0.0
230
1.0
 70
     8
 71
     3
 72
    10
 73
     6
 74
     0
 42
0.000000001
 43
0.00000001
 40
0.0
 40
0.0
 40
0.0
 40
0.0
 40
0.5
 40
0.5
 40
1.0
 40
1.0
 40
1.0
 40
1.0
 10
45.34804807608658
 20
-1.075786791543281
 30
0.0
 10
45.36827823845735
 20
-0.9438612792162897
 30
0.0
 10
45.38753770700772
 20
-0.8138652772006414
 30
0.0
 10
45.41476463305383
 20
-0.6265245908325667
 30
0.0
 10
45.42268660414501
 20
-0.5702775290957924
 30
0.0
 10
45.42268660414502
 20
-0.5702775290957924
 30
0.0
  0
LINE
  5
A9
330
1F
100
AcDbEntity
  8
0
  6
Continuous
 62
     7
370
    25
100
AcDbLine
 10
-23.1009334197
 20
-1.0
 30
0.0
 11
-23.1009334197
 21
0.0
 31
0.0
  0
LINE
  5
AA
330
1F
100
AcDbEntity
  8
0
  6
Continuous
 62
     7
370
    25
100
AcDbLine
 10
23.1009334197
 20
-1.0
 30
0.0
 11
23.1009334197
 21
0.0
 31
0.0
  0
LINE
  5
AB
330
1F
100
AcDbEntity
  8
0
  6
Continuous
 62
     7
370
    25
100
AcDbLine
 10
22.7192449807
 20
-2.1715728753
 30
0.0
 11
22.7192449807
 21
-3.5857864376
 31
0.0
  0
LINE
  5
AC
330
1F
100
AcDbEntity
  8
0
  6
Continuous
 62
     7
370
    25
100
AcDbLine
 10
-22.7192449807
 20
-3.5857864376
 30
0.0
 11
-22.7192449807
 21
-2.1715728753
 31
0.0
  0
LINE
  5
AD
330
1F
100
AcDbEntity
  8
0
  6
Continuous
 62
     7
370
    25
100
AcDbLine
 10
23.1009334197
 20
-1.0
 30
0.0
 11
-23.1009334197
 21
-1.0
 31
0.0
  0
LINE
  5
AE
330
1F
100
AcDbEntity
  8
0
  6
Continuous
 62
     7
370
    25
100
AcDbLine
 10
-23.1009334197
 20
0.0
 30
0.0
 11
23.1009334197
 21
0.0
 31
0.0
  0
LINE
  5
AF
330
1F
100
AcDbEntity
  8
0
  6
Continuous
 62
     7
370
    25
100
AcDbLine
 10
-22.7192449807
 20
-2.1715728753
 30
0.0
 11
22.7192449807
 21
-2.1715728753
 31
0.0
  0
LINE
  5
B0
330
1F
100
AcDbEntity
  8
0
  6
Continuous
 62
     7
370
    25
100
AcDbLine
 10
22.7192449807
 20
-3.5857864376
 30
0.0
 11
-22.7192449807
 21
-3.5857864376
 31
0.0
  0
LINE
  5
B1
330
1F
100
AcDbEntity
  8
0
  6
Continuous
 62
     7
370
    25
100
AcDbLine
 10
-27.065545633
 20
-4.4142135624
 30
0.0
 11
27.065545633
 21
-4.4142135624
 31
0.0
  0
LINE
  5
B2
330
1F
100
AcDbEntity
  8
0
  6
Continuous
 62
     7
370
    25
100
AcDbLine
 10
-28.4197599267
 20
-5.8284271247
 30
0.0
 11
-29.4419755916
 21
-6.2494940512
 31
0.0
  0
LINE
  5
B3
330
1F
100
AcDbEntity
  8
0
  6
Continuous
 62
     7
370
    25
100
AcDbLine
 10
29.4419755916
 20
-6.2494940512
 30
0.0
 11
28.4197599267
 21
-5.8284271247
 31
0.0
  0
LINE
  5
B4
330
1F
100
AcDbEntity
  8
0
  6
Continuous
 62
     7
370
    25
100
AcDbLine
 10
28.4197599267
 20
-5.8284271247
 30
0.0
 11
-28.4197599267
 21
-5.8284271247
 31
0.0
  0
LINE
  5
B5
330
1F
100
AcDbEntity
  8
0
  6
Continuous
 62
     7
370
    25
100
AcDbLine
 10
-38.8531843874
 20
-1.0
 30
0.0
 11
-38.8531843874
 21
0.0
 31
0.0
  0
LINE
  5
B6
330
1F
100
AcDbEntity
  8
0
  6
Continuous
 62
     7
370
    25
100
AcDbLine
 10
38.8531843874
 20
-1.0
 30
0.0
 11
38.8531843874
 21
0.0
 31
0.0
  0
LINE
  5
B7
330
1F
100
AcDbEntity
  8
0
  6
Continuous
 62
     7
370
    25
100
AcDbLine
 10
-44.8538250877
 20
-1.0
 30
0.0
 11
-45.3480480761
 21
-1.0757867915
 31
0.0
  0
LINE
  5
B8
330
1F
100
AcDbEntity
  8
0
  6
Continuous
 62
     7
370
    25
100
AcDbLine
 10
45.3480480761
 20
-1.0757867915
 30
0.0
 11
44.8538250877
 21
-1.0
 31
0.0
  0
LINE
  5
B9
330
1F
100
AcDbEntity
  8
0
  6
Continuous
 62
     7
370
    25
100
AcDbLine
 10
44.8538250877
 20
-1.0
 30
0.0
 11
38.8531843874
 21
-1.0
 31
0.0
  0
LINE
  5
BA
330
1F
100
AcDbEntity
  8
0
  6
Continuous
 62
     7
370
    25
100
AcDbLine
 10
-38.8531843874
 20
-1.0
 30
0.0
 11
-44.8538250877
 21
-1.0
 31
0.0
  0
LINE
  5
BB
330
1F
100
AcDbEntity
  8
0
  6
Continuous
 62
     7
370
    25
100
AcDbLine
 10
-44.9276501722
 20
0.0
 30
0.0
 11
-38.8531843874
 21
0.0
 31
0.0
  0
LINE
  5
BC
330
1F
100
AcDbEntity
  8
0
  6
Continuous
 62
     7
370
    25
100
AcDbLine
 10
38.8531843874
 20
0.0
 30
0.0
 11
44.9276501722
 21
0.0
 31
0.0
  0
ARC
  5
BD
330
1F
100
AcDbEntity
  8
0
  6
Continuous
 62
     7
370
    25
100
AcDbCircle
 10
0.0
 20
5.878125
 30
0.0
 40
24.10314768606599
100
AcDbArc
 50
196.5804946497
 51
199.5098397923
  0
ARC
  5
BE
330
1F
100
AcDbEntity
  8
0
  6
Continuous
 62
     7
370
    25
100
AcDbCircle
 10
0.0
 20
5.878125
 30
0.0
 40
31.84193886353999
100
AcDbArc
 50
202.3875435543
 51
337.6124564457
  0
ARC
  5
BF
330
1F
100
AcDbEntity
  8
0
  6
Continuous
 62
     7
370
    25
100
AcDbCircle
 10
0.0
 20
5.878125
 30
0.0
 40
24.10314768606154
100
AcDbArc
 50
340.4901602077
 51
343.4195053503
  0
ARC
  5
C0
330
1F
100
AcDbEntity
  8
0
  6
Continuous
 62
     7
370
    25
100
AcDbCircle
 10
0.0
 20
5.878125
 30
0.0
 40
37.53803115223018
100
AcDbArc
 50
190.8383005621
 51
349.1616994379
  0
ARC
  5
C1
330
1F
100
AcDbEntity
  8
0
  6
Continuous
 62
     7
370
    25
100
AcDbCircle
 10
-35.8993792309
 20
-0.9876726131
 30
0.0
 40
0.9880286904757014
100
AcDbArc
 50
91.5382894465
 51
191.2511953476
  0
ARC
  5
C2
330
1F
100
AcDbEntity
  8
0
  6
Continuous
 62
     7
370
    25
100
AcDbCircle
 10
35.8993792309
 20
-0.9876726131
 30
0.0
 40
0.9880286904756925
100
AcDbArc
 50
348.7488046524
 51
88.4617105535
  0
ARC
  5
C3
330
1F
100
AcDbEntity
  8
0
  6
Continuous
 62
     7
370
    25
100
AcDbCircle
 10
23.524774317
 20
-1.5476718785
 30
0.0
 40
4.555669296387857
100
AcDbArc
 50
321.007021585
 51
338.3611521932
  0
ARC
  5
C4
330
1F
100
AcDbEntity
  8
0
  6
Continuous
 62
     7
370
    25
100
AcDbCircle
 10
-23.524774317
 20
-1.5476718785
 30
0.0
 40
4.555669296387916
100
AcDbArc
 50
201.6388478068
 51
218.992978415
  0
ARC
  5
C5
330
1F
100
AcDbEntity
  8
0
  6
Continuous
 62
     7
370
    25
100
AcDbCircle
 10
0.0
 20
5.878125
 30
0.0
 40
30.73639726675492
100
AcDbArc
 50
202.3875435543
 51
337.6124564457
  0
ARC
  5
C6
330
1F
100
AcDbEntity
  8
0
  6
Continuous
 62
     7
370
    25
100
AcDbCircle
 10
0.0
 20
5.878125
 30
0.0
 40
39.45730021882817
100
AcDbArc
 50
190.0389832
 51
349.9610168
  0
ARC
  5
C7
330
1F
100
AcDbEntity
  8
0
  6
Continuous
 62
     7
370
    25
100
AcDbCircle
 10
-44.9276501722
 20
-0.5
 30
0.0
 40
0.5000000000000109
100
AcDbArc
 50
90.0
 51
188.0799663358
  0
ARC
  5
C8
330
1F
100
AcDbEntity
  8
0
  6
Continuous
 62
     7
370
    25
100
AcDbCircle
 10
44.9276501722
 20
-0.5
 30
0.0
 40
0.50000000000001
100
AcDbArc
 50
351.9200336642
 51
90.0
  0
ARC
  5
C9
330
1F
100
AcDbEntity
  8
0
  6
Continuous
 62
     7
370
    25
100
AcDbCircle
 10
0.0
 20
5.878125
 30
0.0
 40
45.378125
100
AcDbArc
 50
188.7181290194
 51
351.2818709806
  0
ARC
  5
CA
330
1F
100
AcDbEntity
  8
0
  6
Continuous
 62
     7
370
    25
100
AcDbCircle
 10
0.0
 20
5.878125
 30
0.0
 40
45.878125
100
AcDbArc
 50
188.7181290194
 51
351.2818709806
  0
SPLINE
  5
CF
330
1B
100
AcDbEntity
 67
     1
  8
0
  6
Continuous
 62
     7
370
    25
100
AcDbSpline
210
0.0
220
0.0
230
1.0
 70
     8
 71
     3
 72
    21
 73
    17
 74
     0
 42
0.000000001
 43
0.00000001
 40
0.0
 40
0.0
 40
0.0
 40
0.0
 40
0.009442692246192
 40
0.0869140828319203
 40
0.1637363437318673
 40
0.2399234722456081
 40
0.3154480443416859
 40
0.3916258909115636
 40
0.4681732062275284
 40
0.5449162792193992
 40
0.6216329759972151
 40
0.6981301823912247
 40
0.7742561763020486
 40
0.8497463194300751
 40
0.9249501511556596
 40
1.0
 40
1.0
 40
1.0
 40
1.0
 10
-28.91653894732628
 20
13.3043548022796
 30
0.0
 10
-28.95264585060648
 20
13.29029994526969
 30
0.0
 10
-29.28498733761886
 20
13.16093376722417
 30
0.0
 10
-29.88799036070861
 20
12.86161735271855
 30
0.0
 10
-30.71646110570111
 20
12.40538382795379
 30
0.0
 10
-31.50239068157709
 20
11.8921639641982
 30
0.0
 10
-32.25047729058697
 20
11.33023545925992
 30
0.0
 10
-32.96069651750615
 20
10.71869995883139
 30
0.0
 10
-33.63242055543357
 20
10.05801053874228
 30
0.0
 10
-34.26023668052073
 20
9.352482556374019
 30
0.0
 10
-34.83949527706169
 20
8.606815350173292
 30
0.0
 10
-35.3658931321388
 20
7.826014604081654
 30
0.0
 10
-35.83608190903458
 20
7.01582946354597
 30
0.0
 10
-36.24628337686772
 20
6.179854549583659
 30
0.0
 10
-36.60230654709825
 20
5.323647193877919
 30
0.0
 10
-36.78978557190503
 20
4.736110902020552
 30
0.0
 10
-36.883429018241
 20
4.442643815376116
 30
0.0
  0
SPLINE
  5
D0
330
1B
100
AcDbEntity
 67
     1
  8
0
  6
Continuous
 62
     7
370
    25
100
AcDbSpline
210
0.0
220
0.0
230
1.0
 70
     8
 71
     3
 72
    22
 73
    18
 74
     0
 42
0.000000001
 43
0.00000001
 40
0.0
 40
0.0
 40
0.0
 40
0.0
 40
0.0413526119674798
 40
0.1143564598243601
 40
0.1876828929944351
 40
0.2612289141747663
 40
0.334879176348172
 40
0.4084828070204422
 40
0.4819349741008829
 40
0.5551483888414982
 40
0.6280599590188295
 40
0.7006358706719114
 40
0.7724061663921606
 40
0.8444157301840922
 40
0.9170491849008621
 40
0.990263333450209
 40
1.0
 40
1.0
 40
1.0
 40
1.0
 10
36.73761167066554
 20
4.817610369207683
 30
0.0
 10
36.68229722137081
 20
4.986103025897308
 30
0.0
 10
36.52933071460085
 20
5.452052401491278
 30
0.0
 10
36.21333623548469
 20
6.1933063530523
 30
0.0
 10
35.79662928255856
 20
7.039329022306011
 30
0.0
 10
35.32072329477271
 20
7.85723664468165
 30
0.0
 10
34.79166258795009
 20
8.643045755571745
 30
0.0
 10
34.21148960007238
 20
9.391484384565157
 30
0.0
 10
33.58382170923469
 20
10.09804253188321
 30
0.0
 10
32.91210202004331
 20
10.75865920431868
 30
0.0
 10
32.20000940256502
 20
11.36978122896076
 30
0.0
 10
31.45278096736989
 20
11.92719486473101
 30
0.0
 10
30.67250949408074
 20
12.42994222601351
 30
0.0
 10
29.8609970472704
 20
12.88163849503593
 30
0.0
 10
29.01411392928668
 20
13.27589853883321
 30
0.0
 10
28.39697942286217
 20
13.53247079895138
 30
0.0
 10
28.05794759950167
 20
13.63997547393428
 30
0.0
 10
28.0181524533071
 20
13.65259424291927
 30
0.0
  0
SPLINE
  5
D1
330
1B
100
AcDbEntity
 67
     1
  8
0
  6
Continuous
 62
     7
370
    25
100
AcDbSpline
210
0.0
220
0.0
230
1.0
 70
     8
 71
     3
 72
    15
 73
    11
 74
     0
 42
0.000000001
 43
0.00000001
 40
0.0
 40
0.0
 40
0.0
 40
0.0
 40
0.0752663599415955
 40
0.2148559627431433
 40
0.3548369302421385
 40
0.4952958436705612
 40
0.637495279613723
 40
0.779615412790146
 40
0.9231476456251642
 40
1.0
 40
1.0
 40
1.0
 40
1.0
 10
-36.89166490000733
 20
4.444643379279394
 30
0.0
 10
-36.90857128682622
 20
4.383616874832223
 30
0.0
 10
-36.95683239602954
 20
4.20941011930398
 30
0.0
 10
-37.10122583232781
 20
3.945173204687452
 30
0.0
 10
-37.31487829514902
 20
3.663233923804474
 30
0.0
 10
-37.57771321814532
 20
3.421637460303466
 30
0.0
 10
-37.88007474935355
 20
3.228497185963475
 30
0.0
 10
-38.21314172539902
 20
3.090982393827433
 30
0.0
 10
-38.51134289579061
 20
3.016293946443601
 30
0.0
 10
-38.69666780552725
 20
3.01154074888853
 30
0.0
 10
-38.76129417444844
 20
3.009883217263744
 30
0.0
  0
SPLINE
  5
D2
330
1B
100
AcDbEntity
 67
     1
  8
0
  6
Continuous
 62
     7
370
    25
100
AcDbSpline
210
0.0
220
0.0
230
1.0
 70
     8
 71
     3
 72
    15
 73
    11
 74
     0
 42
0.000000001
 43
0.00000001
 40
0.0
 40
0.0
 40
0.0
 40
0.0
 40
0.0521484769197143
 40
0.1936024265439199
 40
0.3335807620466057
 40
0.4733502717623573
 40
0.6121842140988722
 40
0.7500457800909858
 40
0.8871842183673021
 40
1.0
 40
1.0
 40
1.0
 40
1.0
 10
38.81205721998727
 20
3.007821803715054
 30
0.0
 10
38.7673098667526
 20
3.006786063639566
 30
0.0
 10
38.60118428304693
 20
3.002940854656913
 30
0.0
 10
38.31793155658781
 20
3.061083780995397
 30
0.0
 10
37.97652203120132
 20
3.18087292149028
 30
0.0
 10
37.66277130069809
 20
3.359474820473086
 30
0.0
 10
37.38660598449002
 20
3.58871608830317
 30
0.0
 10
37.15671597989847
 20
3.860660783820829
 30
0.0
 10
36.98466667709663
 20
4.148514574159877
 30
0.0
 10
36.9180889803739
 20
4.352693796580028
 30
0.0
 10
36.88803941810681
 20
4.44484922639782
 30
0.0
  0
SPLINE
  5
D4
330
1B
100
AcDbEntity
 67
     1
  8
0
  6
Continuous
 62
     7
370
    25
100
AcDbSpline
210
0.0
220
0.0
230
1.0
 70
     8
 71
     3
 72
    17
 73
    13
 74
     0
 42
0.000000001
 43
0.00000001
 40
0.0
 40
0.0
 40
0.0
 40
0.0
 40
0.0168928722769811
 40
0.1428441615267005
 40
0.2465034238781834
 40
0.3395591430707269
 40
0.4276792660969748
 40
0.5189449338759363
 40
0.6277470371051976
 40
0.7865586357259609
 40
0.926807866262006
 40
1.0
 40
1.0
 40
1.0
 40
1.0
 10
-44.8608698781521
 20
2.996615223714223
 30
0.0
 10
-44.86857040756177
 20
2.997586554459192
 30
0.0
 10
-44.93368518785496
 20
3.005800014169019
 30
0.0
 10
-45.04677759076625
 20
2.96830054075062
 30
0.0
 10
-45.17439945048567
 20
2.895456646289748
 30
0.0
 10
-45.26473679446925
 20
2.802625414824912
 30
0.0
 10
-45.32666290729325
 20
2.702566070365448
 30
0.0
 10
-45.36726196200875
 20
2.59697392879447
 30
0.0
 10
-45.39634363281923
 20
2.473637344090532
 30
0.0
 10
-45.41587243302806
 20
2.317751659165777
 30
0.0
 10
-45.42664977757113
 20
2.152808934229156
 30
0.0
 10
-45.42639206876115
 20
2.053265638831525
 30
0.0
 10
-45.42630369667943
 20
2.0191308017804
 30
0.0
  0
SPLINE
  5
D5
330
1B
100
AcDbEntity
 67
     1
  8
0
  6
Continuous
 62
     7
370
    25
100
AcDbSpline
210
0.0
220
0.0
230
1.0
 70
     8
 71
     3
 72
    16
 73
    12
 74
     0
 42
0.000000001
 43
0.00000001
 40
0.0
 40
0.0
 40
0.0
 40
0.0
 40
0.005092012749901
 40
0.1461709615933978
 40
0.2927682734535541
 40
0.4588467161558215
 40
0.5910458871147949
 40
0.701552102852823
 40
0.8081613094175335
 40
0.9256818799362402
 40
1.0
 40
1.0
 40
1.0
 40
1.0
 10
45.42756301066329
 20
1.999937904365556
 30
0.0
 10
45.42759121618239
 20
2.002337363790474
 30
0.0
 10
45.42840088183935
 20
2.07121607809678
 30
0.0
 10
45.42354422891706
 20
2.210305371340518
 30
0.0
 10
45.40720657496108
 20
2.404050026821825
 30
0.0
 10
45.37957860609819
 20
2.561865787033938
 30
0.0
 10
45.3254600657504
 20
2.7126123983973
 30
0.0
 10
45.23356557431159
 20
2.843384885283105
 30
0.0
 10
45.11092155372621
 20
2.938620651343443
 30
0.0
 10
44.97888563326558
 20
2.995358978240358
 30
0.0
 10
44.88867618642751
 20
2.993768191038904
 30
0.0
 10
44.85372913544087
 20
2.993151921641554
 30
0.0
  0
SPLINE
  5
D9
330
1B
100
AcDbEntity
 67
     1
  8
0
  6
Continuous
 62
     7
370
    25
100
AcDbSpline
210
0.0
220
0.0
230
1.0
 70
     8
 71
     3
 72
    10
 73
     6
 74
     0
 42
0.000000001
 43
0.00000001
 40
0.0
 40
0.0
 40
0.0
 40
0.0
 40
0.5
 40
0.5
 40
1.0
 40
1.0
 40
1.0
 40
1.0
 10
45.34804807608658
 20
2.5
 30
0.0
 10
45.36827823845735
 20
2.5
 30
0.0
 10
45.38753770700772
 20
2.447074990637266
 30
0.0
 10
45.41476463305383
 20
2.263686660269153
 30
0.0
 10
45.42268660414501
 20
2.133548419450588
 30
0.0
 10
45.42268660414502
 20
2.0
 30
0.0
  0
SPLINE
  5
DD
330
1B
100
AcDbEntity
 67
     1
  8
0
  6
Continuous
 62
     7
370
    25
100
AcDbSpline
210
0.0
220
0.0
230
1.0
 70
     8
 71
     3
 72
    10
 73
     6
 74
     0
 42
0.000000001
 43
0.00000001
 40
0.0
 40
0.0
 40
0.0
 40
0.0
 40
0.5
 40
0.5
 40
1.0
 40
1.0
 40
1.0
 40
1.0
 10
-45.42268660414503
 20
2.0
 30
0.0
 10
-45.42268660414502
 20
2.133570206189193
 30
0.0
 10
-45.41475267472872
 20
2.263903929974419
 30
0.0
 10
-45.38747386894659
 20
2.447367870737764
 30
0.0
 10
-45.36828102845094
 20
2.499999999999999
 30
0.0
 10
-45.34804807608658
 20
2.5
 30
0.0
  0
SPLINE
  5
E2
330
1B
100
AcDbEntity
 67
     1
  8
0
  6
Continuous
 62
     7
370
    25
100
AcDbSpline
210
0.0
220
0.0
230
1.0
 70
     8
 71
     3
 72
    12
 73
     8
 74
     0
 42
0.000000001
 43
0.00000001
 40
0.0
 40
0.0
 40
0.0
 40
0.0
 40
0.1763830679565349
 40
0.3519316900213458
 40
0.5994932081363334
 40
0.941968126464602
 40
1.0
 40
1.0
 40
1.0
 40
1.0
 10
-44.99519934918165
 20
0.0
 30
0.0
 10
-45.0389301551931
 20
0.0035751673202059
 30
0.0
 10
-45.1261848823271
 20
0.010708588298115
 30
0.0
 10
-45.24936631895491
 20
0.0683972912094728
 30
0.0
 10
-45.35875160671475
 20
0.1729702377208419
 30
0.0
 10
-45.41725665614273
 20
0.2806393376813612
 30
0.0
 10
-45.41810805745369
 20
0.3514442503625014
 30
0.0
 10
-45.4182314221861
 20
0.3617036063131877
 30
0.0
  0
SPLINE
  5
E3
330
1B
100
AcDbEntity
 67
     1
  8
0
  6
Continuous
 62
     7
370
    25
100
AcDbSpline
210
0.0
220
0.0
230
1.0
 70
     8
 71
     3
 72
     9
 73
     5
 74
     0
 42
0.000000001
 43
0.00000001
 40
0.0
 40
0.0
 40
0.0
 40
0.0
 40
0.9541907822144904
 40
1.0
 40
1.0
 40
1.0
 40
1.0
 10
-45.42075134646689
 20
0.4312903887296144
 30
0.0
 10
-45.4233710472384
 20
0.4530553955389054
 30
0.0
 10
-45.42611651577607
 20
0.4758653065283814
 30
0.0
 10
-45.42283684337244
 20
0.498942836407802
 30
0.0
 10
-45.42268660414503
 20
0.5
 30
0.0
  0
SPLINE
  5
E4
330
1B
100
AcDbEntity
 67
     1
  8
0
  6
Continuous
 62
     7
370
    25
100
AcDbSpline
210
0.0
220
0.0
230
1.0
 70
     8
 71
     3
 72
    12
 73
     8
 74
     0
 42
0.000000001
 43
0.00000001
 40
0.0
 40
0.0
 40
0.0
 40
0.0
 40
0.1763830679565351
 40
0.3519316900213461
 40
0.599493208136334
 40
0.9419681264646028
 40
0.9999999999999999
 40
0.9999999999999999
 40
0.9999999999999999
 40
0.9999999999999999
 10
44.99519934918165
 20
0.0
 30
0.0
 10
45.03893015519311
 20
0.0035751673202059
 30
0.0
 10
45.12618488232712
 20
0.010708588298115
 30
0.0
 10
45.24936631895491
 20
0.0683972912094728
 30
0.0
 10
45.35875160671473
 20
0.1729702377208414
 30
0.0
 10
45.41725665614277
 20
0.2806393376813612
 30
0.0
 10
45.41810805745369
 20
0.3514442503625009
 30
0.0
 10
45.4182314221861
 20
0.3617036063131873
 30
0.0
  0
SPLINE
  5
E5
330
1B
100
AcDbEntity
 67
     1
  8
0
  6
Continuous
 62
     7
370
    25
100
AcDbSpline
210
0.0
220
0.0
230
1.0
 70
     8
 71
     3
 72
     9
 73
     5
 74
     0
 42
0.000000001
 43
0.00000001
 40
0.0
 40
0.0
 40
0.0
 40
0.0
 40
0.9541907822144906
 40
1.0
 40
1.0
 40
1.0
 40
1.0
 10
45.42075134646688
 20
0.431290388729614
 30
0.0
 10
45.42337104723841
 20
0.4530553955389054
 30
0.0
 10
45.4261165157761
 20
0.4758653065283814
 30
0.0
 10
45.42283684337244
 20
0.498942836407802
 30
0.0
 10
45.42268660414503
 20
0.5
 30
0.0
  0
SPLINE
  5
E6
330
1B
100
AcDbEntity
 67
     1
  8
0
  6
Continuous
 62
     7
370
    25
100
AcDbSpline
210
0.0
220
0.0
230
1.0
 70
     8
 71
     3
 72
    12
 73
     8
 74
     0
 42
0.000000001
 43
0.00000001
 40
0.0
 40
0.0
 40
0.0
 40
0.0
 40
0.4999999999999969
 40
0.4999999999999969
 40
0.7499999999999984
 40
0.7499999999999984
 40
1.0
 40
1.0
 40
1.0
 40
1.0
 10
38.85318438742329
 20
3.0
 30
0.0
 10
38.4126459940351
 20
3.0
 30
0.0
 10
37.98080448333633
 20
3.137144320976344
 30
0.0
 10
37.44471377616139
 20
3.520970288629007
 30
0.0
 10
37.28935034961312
 20
3.674345416667077
 30
0.0
 10
37.03033102393392
 20
4.031206247733579
 30
0.0
 10
36.93276693799038
 20
4.225895278127298
 30
0.0
 10
36.86841920550597
 20
4.437500000000003
 30
0.0
  0
SPLINE
  5
E8
330
1B
100
AcDbEntity
 67
     1
  8
0
  6
Continuous
 62
     7
370
    25
100
AcDbSpline
210
0.0
220
0.0
230
1.0
 70
     8
 71
     3
 72
    11
 73
     7
 74
     0
 42
0.000000001
 43
0.00000001
 40
0.0
 40
0.0
 40
0.0
 40
0.0
 40
0.2975896055024304
 40
0.5951729284826188
 40
0.9013012890631954
 40
1.0
 40
1.0
 40
1.0
 40
1.0
 10
-23.10093341966137
 20
14.5
 30
0.0
 10
-23.50930266049347
 20
14.49073110983639
 30
0.0
 10
-24.32603252092632
 20
14.47219352518806
 30
0.0
 10
-25.55271599290831
 20
14.30963412059661
 30
0.0
 10
-26.50165895039014
 20
14.12946364508318
 30
0.0
 10
-27.03194554389484
 20
13.96418843533127
 30
0.0
 10
-27.16123186610102
 20
13.92389357537741
 30
0.0
  0
SPLINE
  5
EA
330
1B
100
AcDbEntity
 67
     1
  8
0
  6
Continuous
 62
     7
370
    25
100
AcDbSpline
210
0.0
220
0.0
230
1.0
 70
     8
 71
     3
 72
    12
 73
     8
 74
     0
 42
0.000000001
 43
0.00000001
 40
0.0
 40
0.0
 40
0.0
 40
0.0
 40
0.25
 40
0.25
 40
0.5
 40
0.5
 40
1.0
 40
1.0
 40
1.0
 40
1.0
 10
-27.75939045314573
 20
13.53350168779611
 30
0.0
 10
-27.37699947593135
 20
13.69528424039932
 30
0.0
 10
-26.98224734025685
 20
13.83696851821844
 30
0.0
 10
-26.16841431047612
 20
14.08045495517056
 30
0.0
 10
-25.74741857530859
 20
14.1824342709703
 30
0.0
 10
-24.47426705095147
 20
14.42323399043999
 30
0.0
 10
-23.60562942604701
 20
14.5
 30
0.0
 10
-22.71924498068514
 20
14.5
 30
0.0
  0
SPLINE
  5
EB
330
1B
100
AcDbEntity
 67
     1
  8
0
  6
Continuous
 62
     7
370
    25
100
AcDbSpline
210
0.0
220
0.0
230
1.0
 70
     8
 71
     3
 72
    18
 73
    14
 74
     0
 42
0.000000001
 43
0.00000001
 40
0.0
 40
0.0
 40
0.0
 40
0.0
 40
0.2500000000000002
 40
0.2500000000000002
 40
0.5000000000000004
 40
0.5000000000000004
 40
0.6250000000000003
 40
0.6250000000000003
 40
0.7500000000000002
 40
0.7500000000000002
 40
0.8750000000000001
 40
0.8750000000000001
 40
1.0
 40
1.0
 40
1.0
 40
1.0
 10
-27.75939045314573
 20
13.53350168779611
 30
0.0
 10
-28.06028970920497
 20
13.40619677574957
 30
0.0
 10
-28.34488748505485
 20
13.26840226029565
 30
0.0
 10
-28.86738012704781
 20
12.9756070766202
 30
0.0
 10
-29.09946946825428
 20
12.82360984714546
 30
0.0
 10
-29.37063365583817
 20
12.604924184199
 30
0.0
 10
-29.4456802803649
 20
12.53555680057785
 30
0.0
 10
-29.55921698751131
 20
12.40810736285846
 30
0.0
 10
-29.59635759923115
 20
12.35109398957022
 30
0.0
 10
-29.62534526979278
 20
12.25902356803289
 30
0.0
 10
-29.61697934556626
 20
12.22305719624701
 30
0.0
 10
-29.55831937425328
 20
12.17736914841495
 30
0.0
 10
-29.50892835059275
 20
12.16666666666667
 30
0.0
 10
-29.44197559161469
 20
12.16666666666667
 30
0.0
  0
SPLINE
  5
ED
330
1B
100
AcDbEntity
 67
     1
  8
0
  6
Continuous
 62
     7
370
    25
100
AcDbSpline
210
0.0
220
0.0
230
1.0
 70
     8
 71
     3
 72
    18
 73
    14
 74
     0
 42
0.000000001
 43
0.00000001
 40
0.0
 40
0.0
 40
0.0
 40
0.0
 40
0.1250000000000002
 40
0.1250000000000002
 40
0.2500000000000005
 40
0.2500000000000005
 40
0.3750000000000008
 40
0.3750000000000008
 40
0.500000000000001
 40
0.500000000000001
 40
0.7500000000000004
 40
0.7500000000000004
 40
1.0
 40
1.0
 40
1.0
 40
1.0
 10
29.44197559161469
 20
12.16666666666667
 30
0.0
 10
29.50899897617009
 20
12.16666666666667
 30
0.0
 10
29.55873437946647
 20
12.17746701485146
 30
0.0
 10
29.61727192066684
 20
12.22351317019785
 30
0.0
 10
29.62529981770266
 20
12.25928307040805
 30
0.0
 10
29.59631871227031
 20
12.35110202820447
 30
0.0
 10
29.55882353836579
 20
12.40858745855493
 30
0.0
 10
29.44563510201664
 20
12.53556893227218
 30
0.0
 10
29.37066142668229
 20
12.60492116673483
 30
0.0
 10
29.09853092001769
 20
12.82432790548473
 30
0.0
 10
28.86635875733459
 20
12.9762140091678
 30
0.0
 10
28.34467069658182
 20
13.26848908645947
 30
0.0
 10
28.06028574457414
 20
13.40619845311157
 30
0.0
 10
27.75939045314573
 20
13.53350168779611
 30
0.0
  0
SPLINE
  5
EE
330
1B
100
AcDbEntity
 67
     1
  8
0
  6
Continuous
 62
     7
370
    25
100
AcDbSpline
210
0.0
220
0.0
230
1.0
 70
     8
 71
     3
 72
    12
 73
     8
 74
     0
 42
0.000000001
 43
0.00000001
 40
0.0
 40
0.0
 40
0.0
 40
0.0
 40
0.5
 40
0.5
 40
0.75
 40
0.75
 40
1.0
 40
1.0
 40
1.0
 40
1.0
 10
22.71924498068513
 20
14.5
 30
0.0
 10
23.605629426047
 20
14.5
 30
0.0
 10
24.47426705095145
 20
14.42323399043999
 30
0.0
 10
25.7474185753086
 20
14.1824342709703
 30
0.0
 10
26.16841431047612
 20
14.08045495517056
 30
0.0
 10
26.98224734025687
 20
13.83696851821844
 30
0.0
 10
27.37699947593134
 20
13.69528424039932
 30
0.0
 10
27.75939045314573
 20
13.53350168779611
 30
0.0
  0
SPLINE
  5
F0
330
1B
100
AcDbEntity
 67
     1
  8
0
  6
Continuous
 62
     7
370
    25
100
AcDbSpline
210
0.0
220
0.0
230
1.0
 70
     8
 71
     3
 72
    11
 73
     7
 74
     0
 42
0.000000001
 43
0.00000001
 40
0.0
 40
0.0
 40
0.0
 40
0.0
 40
0.2266328088161922
 40
0.4836040116531842
 40
0.7411666214196959
 40
1.0
 40
1.0
 40
1.0
 40
1.0
 10
27.10276640186731
 20
13.94899286849983
 30
0.0
 10
26.80683479432686
 20
14.02775760593508
 30
0.0
 10
26.17535644249824
 20
14.19583098948208
 30
0.0
 10
25.18743932121357
 20
14.36432648117526
 30
0.0
 10
24.14820562027341
 20
14.47923038627556
 30
0.0
 10
23.45059638850905
 20
14.49306544679362
 30
0.0
 10
23.10093341966137
 20
14.5
 30
0.0
  0
SPLINE
  5
F7
330
1B
100
AcDbEntity
 67
     1
  8
0
  6
Continuous
 62
     7
370
    25
100
AcDbSpline
210
0.0
220
0.0
230
1.0
 70
     8
 71
     3
 72
    18
 73
    14
 74
     0
 42
0.000000001
 43
0.00000001
 40
0.0
 40
0.0
 40
0.0
 40
0.0
 40
0.1250000000000002
 40
0.1250000000000002
 40
0.2500000000000003
 40
0.2500000000000003
 40
0.3750000000000005
 40
0.3750000000000005
 40
0.5000000000000007
 40
0.5000000000000007
 40
0.7500000000000003
 40
0.7500000000000003
 40
1.0
 40
1.0
 40
1.0
 40
1.0
 10
-28.41975992668442
 20
12.5
 30
0.0
 10
-28.48675530901188
 20
12.5
 30
0.0
 10
-28.54365615124584
 20
12.50488233527765
 30
0.0
 10
-28.6097137105317
 20
12.5317865561999
 30
0.0
 10
-28.61511085832726
 20
12.55490647052574
 30
0.0
 10
-28.56139028939236
 20
12.61267572215753
 30
0.0
 10
-28.50512844457219
 20
12.64649969124705
 30
0.0
 10
-28.3680583039443
 20
12.71258660427702
 30
0.0
 10
-28.28728098775111
 20
12.7452161940285
 30
0.0
 10
-28.03400113520377
 20
12.83773329134672
 30
0.0
 10
-27.84671852711853
 20
12.89407758240646
 30
0.0
 10
-27.46274044782075
 20
12.99689652330593
 30
0.0
 10
-27.26566761122482
 20
13.04330619902393
 30
0.0
 10
-27.06554563300999
 20
13.08578643762691
 30
0.0
  0
SPLINE
  5
F9
330
1B
100
AcDbEntity
 67
     1
  8
0
  6
Continuous
 62
     7
370
    25
100
AcDbSpline
210
0.0
220
0.0
230
1.0
 70
     8
 71
     3
 72
    18
 73
    14
 74
     0
 42
0.000000001
 43
0.00000001
 40
0.0
 40
0.0
 40
0.0
 40
0.0
 40
0.2499999999999994
 40
0.2499999999999994
 40
0.4999999999999989
 40
0.4999999999999989
 40
0.6249999999999991
 40
0.6249999999999991
 40
0.7499999999999994
 40
0.7499999999999994
 40
0.8749999999999997
 40
0.8749999999999997
 40
1.0
 40
1.0
 40
1.0
 40
1.0
 10
27.06554563300999
 20
13.08578643762691
 30
0.0
 10
27.26557884781724
 20
13.04332504098604
 30
0.0
 10
27.46251287950369
 20
12.99694753207333
 30
0.0
 10
27.84606702763972
 20
12.89426194148211
 30
0.0
 10
28.03379839882892
 20
12.83778615223222
 30
0.0
 10
28.28674758553559
 20
12.74542159024692
 30
0.0
 10
28.36757211606369
 20
12.71277827132053
 30
0.0
 10
28.50424740556087
 20
12.64696679229141
 30
0.0
 10
28.56114709954379
 20
12.61285436090245
 30
0.0
 10
28.61509770597194
 20
12.55500309980611
 30
0.0
 10
28.60968102777814
 20
12.53179298176234
 30
0.0
 10
28.54379413247201
 20
12.50491882765599
 30
0.0
 10
28.48682513911395
 20
12.5
 30
0.0
 10
28.41975992668442
 20
12.5
 30
0.0
  0
SPLINE
  5
FD
330
1B
100
AcDbEntity
 67
     1
  8
0
  6
Continuous
 62
     7
370
    25
100
AcDbSpline
210
0.0
220
0.0
230
1.0
 70
     8
 71
     3
 72
    12
 73
     8
 74
     0
 42
0.000000001
 43
0.00000001
 40
0.0
 40
0.0
 40
0.0
 40
0.0
 40
0.2499999999999994
 40
0.2499999999999994
 40
0.4999999999999989
 40
0.4999999999999989
 40
1.0
 40
1.0
 40
1.0
 40
1.0
 10
27.06554563300999
 20
13.08578643762691
 30
0.0
 10
26.7374747937566
 20
13.2250667670988
 30
0.0
 10
26.39800312789936
 20
13.34696762311037
 30
0.0
 10
25.6964387822812
 20
13.55628575561378
 30
0.0
 10
25.3324538415639
 20
13.64386486232781
 30
0.0
 10
24.23299496597348
 20
13.84972921103933
 30
0.0
 10
23.48345959577829
 20
13.91421356237309
 30
0.0
 10
22.71924498068513
 20
13.9142135623731
 30
0.0
  0
SPLINE
  5
FE
330
1B
100
AcDbEntity
 67
     1
  8
0
  6
Continuous
 62
     7
370
    25
100
AcDbSpline
210
0.0
220
0.0
230
1.0
 70
     8
 71
     3
 72
    12
 73
     8
 74
     0
 42
0.000000001
 43
0.00000001
 40
0.0
 40
0.0
 40
0.0
 40
0.0
 40
0.500000000000001
 40
0.500000000000001
 40
0.7500000000000004
 40
0.7500000000000004
 40
1.0
 40
1.0
 40
1.0
 40
1.0
 10
-22.71924498068514
 20
13.9142135623731
 30
0.0
 10
-23.4834595957783
 20
13.9142135623731
 30
0.0
 10
-24.23299496597348
 20
13.84972921103933
 30
0.0
 10
-25.3324538415639
 20
13.64386486232781
 30
0.0
 10
-25.69643878228121
 20
13.55628575561378
 30
0.0
 10
-26.39800312789935
 20
13.34696762311036
 30
0.0
 10
-26.7374747937566
 20
13.22506676709879
 30
0.0
 10
-27.06554563301
 20
13.0857864376269
 30
0.0
  0
SPLINE
  5
103
330
1B
100
AcDbEntity
 67
     1
  8
0
  6
Continuous
 62
     8
370
    25
100
AcDbSpline
210
0.0
220
0.0
230
1.0
 70
     8
 71
     3
 72
    11
 73
     7
 74
     0
 42
0.000000001
 43
0.00000001
 40
0.0
 40
0.0
 40
0.0
 40
0.0
 40
0.2052835791580316
 40
0.4797714535331321
 40
0.7577156168933931
 40
1.0
 40
1.0
 40
1.0
 40
1.0
 10
-36.86841920550597
 20
4.4375
 30
0.0
 10
-36.93192482183066
 20
4.275582265607697
 30
0.0
 10
-37.08034478789214
 20
3.897161804015953
 30
0.0
 10
-37.52681579517885
 20
3.421146923930401
 30
0.0
 10
-38.12075933369906
 20
3.082995263729178
 30
0.0
 10
-38.55758922310744
 20
3.029634021649822
 30
0.0
 10
-38.76103261543305
 20
3.004782260425252
 30
0.0
  0
SPLINE
  5
104
330
1B
100
AcDbEntity
 67
     1
  8
0
  6
Continuous
 62
     8
370
    25
100
AcDbSpline
210
0.0
220
0.0
230
1.0
 70
     8
 71
     3
 72
    18
 73
    14
 74
     0
 42
0.000000001
 43
0.00000001
 40
0.0
 40
0.0
 40
0.0
 40
0.0
 40
0.0602750788578455
 40
0.1469729175293131
 40
0.2336692323718727
 40
0.3230452741212448
 40
0.4124198522237871
 40
0.4966327187602553
 40
0.5808446430402944
 40
0.6676229966593317
 40
0.7544005251324389
 40
0.8889829582467845
 40
1.0
 40
1.0
 40
1.0
 40
1.0
 10
-27.16123186610102
 20
13.92389357537741
 30
0.0
 10
-27.4349730637746
 20
13.84585349658614
 30
0.0
 10
-28.10245526757129
 20
13.65556294398115
 30
0.0
 10
-29.12557224758312
 20
13.23719141606552
 30
0.0
 10
-30.23739604809476
 20
12.6852113116748
 30
0.0
 10
-31.30617515068163
 20
12.02758595045195
 30
0.0
 10
-32.30365433616377
 20
11.28611165522781
 30
0.0
 10
-33.21413986350422
 20
10.47643735051908
 30
0.0
 10
-34.04465590902485
 20
9.601897310228338
 30
0.0
 10
-34.80436360172634
 20
8.649072751547504
 30
0.0
 10
-35.60656523309974
 20
7.434459873163435
 30
0.0
 10
-36.33386424552638
 20
6.035586779980972
 30
0.0
 10
-36.70200876867657
 20
4.934994811680499
 30
0.0
 10
-36.86841920550597
 20
4.4375
 30
0.0
  0
SPLINE
  5
105
330
1B
100
AcDbEntity
 67
     1
  8
0
  6
Continuous
 62
     8
370
    25
100
AcDbSpline
210
0.0
220
0.0
230
1.0
 70
     8
 71
     3
 72
    20
 73
    16
 74
     0
 42
0.000000001
 43
0.00000001
 40
0.0
 40
0.0
 40
0.0
 40
0.0
 40
0.0812569658565949
 40
0.1625143080198889
 40
0.2461478749510373
 40
0.3297820610904672
 40
0.4109667105918637
 40
0.4921520875487328
 40
0.575640355022621
 40
0.6591296353400916
 40
0.741142861333644
 40
0.8231572126354032
 40
0.9074397096421167
 40
0.9917236496022909
 40
1.0
 40
1.0
 40
1.0
 40
1.0
 10
36.86841920550597
 20
4.4375
 30
0.0
 10
36.74939054297047
 20
4.804230806891646
 30
0.0
 10
36.51133266666942
 20
5.537694119030988
 30
0.0
 10
36.03513578143797
 20
6.605687051542085
 30
0.0
 10
35.47111631177634
 20
7.641812522609928
 30
0.0
 10
34.8194498643806
 20
8.625270853102394
 30
0.0
 10
34.09487566382942
 20
9.54120473834988
 30
0.0
 10
33.29803435251058
 20
10.39412072140164
 30
0.0
 10
32.42450617249597
 20
11.18475189325671
 30
0.0
 10
31.48492964764546
 20
11.90219564927568
 30
0.0
 10
30.49474298325393
 20
12.53457952238743
 30
0.0
 10
29.4537512793701
 20
13.08850281796048
 30
0.0
 10
28.35859774535687
 20
13.55043701824002
 30
0.0
 10
27.56690507614275
 20
13.83399785370739
 30
0.0
 10
27.14086142638069
 20
13.93955444384308
 30
0.0
 10
27.10276640186731
 20
13.94899286849983
 30
0.0
  0
LINE
  5
109
330
1B
100
AcDbEntity
 67
     1
  8
0
  6
Continuous
 62
     7
370
    25
100
AcDbLine
 10
-40.5
 20
0.0
 30
0.0
 11
-40.5
 21
-8.0
 31
0.0
  0
LINE
  5
10A
330
1B
100
AcDbEntity
 67
     1
  8
0
  6
Continuous
 62
     7
370
    25
100
AcDbLine
 10
-34.5
 20
-8.0
 30
0.0
 11
-34.5
 21
0.0
 31
0.0
  0
LINE
  5
10B
330
1B
100
AcDbEntity
 67
     1
  8
0
  6
Continuous
 62
     7
370
    25
100
AcDbLine
 10
34.5
 20
0.0
 30
0.0
 11
34.5
 21
-8.0
 31
0.0
  0
LINE
  5
10C
330
1B
100
AcDbEntity
 67
     1
  8
0
  6
Continuous
 62
     7
370
    25
100
AcDbLine
 10
40.5
 20
-8.0
 30
0.0
 11
40.5
 21
0.0
 31
0.0
  0
LINE
  5
10D
330
1B
100
AcDbEntity
 67
     1
  8
0
  6
Continuous
 62
     7
370
    25
100
AcDbLine
 10
-45.4263036967
 20
2.0191308018
 30
0.0
 11
-45.4263958713
 21
2.000048734
 31
0.0
  0
LINE
  5
10E
330
1B
100
AcDbEntity
 67
     1
  8
0
  6
Continuous
 62
     7
370
    25
100
AcDbLine
 10
-45.4276501722
 20
2.0
 30
0.0
 11
-45.4276501722
 21
0.4312903887
 31
0.0
  0
LINE
  5
10F
330
1B
100
AcDbEntity
 67
     1
  8
0
  6
Continuous
 62
     7
370
    25
100
AcDbLine
 10
45.4276501722
 20
0.4312903887
 30
0.0
 11
45.4276501722
 21
2.0
 31
0.0
  0
LINE
  5
110
330
1B
100
AcDbEntity
 67
     1
  8
0
  6
Continuous
 62
     7
370
    25
100
AcDbLine
 10
45.3480480761
 20
2.5
 30
0.0
 11
-45.3480480761
 21
2.5
 31
0.0
  0
LINE
  5
111
330
1B
100
AcDbEntity
 67
     1
  8
0
  6
Continuous
 62
     7
370
    25
100
AcDbLine
 10
45.4226866041
 20
0.5
 30
0.0
 11
45.4226866041
 21
2.0
 31
0.0
  0
LINE
  5
112
330
1B
100
AcDbEntity
 67
     1
  8
0
  6
Continuous
 62
     7
370
    25
100
AcDbLine
 10
-45.4226866041
 20
0.5
 30
0.0
 11
45.4226866041
 21
0.5
 31
0.0
  0
LINE
  5
113
330
1B
100
AcDbEntity
 67
     1
  8
0
  6
Continuous
 62
     7
370
    25
100
AcDbLine
 10
-45.4226866041
 20
2.0
 30
0.0
 11
-45.4226866041
 21
0.5
 31
0.0
  0
LINE
  5
114
330
1B
100
AcDbEntity
 67
     1
  8
0
  6
Continuous
 62
     7
370
    25
100
AcDbLine
 10
-44.8538250877
 20
3.0
 30
0.0
 11
44.8538250877
 21
3.0
 31
0.0
  0
LINE
  5
115
330
1B
100
AcDbEntity
 67
     1
  8
0
  6
Continuous
 62
     7
370
    25
100
AcDbLine
 10
44.9951993492
 20
0.0
 30
0.0
 11
-44.9951993492
 21
0.0
 31
0.0
  0
LINE
  5
116
330
1B
100
AcDbEntity
 67
     1
  8
0
  6
Continuous
 62
     7
370
    25
100
AcDbLine
 10
-36.8684192055
 20
4.4375
 30
0.0
 11
36.8684192055
 21
4.4375
 31
0.0
  0
LINE
  5
117
330
1B
100
AcDbEntity
 67
     1
  8
0
  6
Continuous
 62
     7
370
    25
100
AcDbLine
 10
29.4419755916
 20
12.1666666667
 30
0.0
 11
-29.4419755916
 21
12.1666666667
 31
0.0
  0
LINE
  5
118
330
1B
100
AcDbEntity
 67
     1
  8
0
  6
Continuous
 62
     7
370
    25
100
AcDbLine
 10
-23.1009334197
 20
14.5
 30
0.0
 11
23.1009334197
 21
14.5
 31
0.0
  0
LINE
  5
119
330
1B
100
AcDbEntity
 67
     1
  8
0
  6
Continuous
 62
     7
370
    25
100
AcDbLine
 10
-28.4197599267
 20
12.5
 30
0.0
 11
28.4197599267
 21
12.5
 31
0.0
  0
LINE
  5
11A
330
1B
100
AcDbEntity
 67
     1
  8
0
  6
Continuous
 62
     7
370
    25
100
AcDbLine
 10
-34.5
 20
-8.0
 30
0.0
 11
-40.5
 21
-8.0
 31
0.0
  0
LINE
  5
11B
330
1B
100
AcDbEntity
 67
     1
  8
0
  6
Continuous
 62
     7
370
    25
100
AcDbLine
 10
40.5
 20
-8.0
 30
0.0
 11
34.5
 21
-8.0
 31
0.0
  0
LINE
  5
11C
330
1B
100
AcDbEntity
 67
     1
  8
0
  6
Continuous
 62
     7
370
    25
100
AcDbLine
 10
-27.065545633
 20
13.0857864376
 30
0.0
 11
27.065545633
 21
13.0857864376
 31
0.0
  0
LINE
  5
11D
330
1B
100
AcDbEntity
 67
     1
  8
0
  6
Continuous
 62
     7
370
    25
100
AcDbLine
 10
22.7192449807
 20
13.9142135624
 30
0.0
 11
-22.7192449807
 21
13.9142135624
 31
0.0
  0
LINE
  5
11E
330
1B
100
AcDbEntity
 67
     1
  8
0
  6
Continuous
 62
     7
370
    25
100
AcDbLine
 10
-22.7192449807
 20
13.9142135624
 30
0.0
 11
-22.7192449807
 21
14.5
 31
0.0
  0
LINE
  5
11F
330
1B
100
AcDbEntity
 67
     1
  8
0
  6
Continuous
 62
     7
370
    25
100
AcDbLine
 10
22.7192449807
 20
14.5
 30
0.0
 11
22.7192449807
 21
13.9142135624
 31
0.0
  0
LINE
  5
120
330
1B
100
AcDbEntity
 67
     1
  8
0
  6
Continuous
 62
     7
370
    25
100
AcDbLine
 10
-45.4226866041
 20
2.0
 30
0.0
 11
-45.427588607
 21
2.0
 31
0.0
  0
LINE
  5
121
330
1B
100
AcDbEntity
 67
     1
  8
0
  6
Continuous
 62
     8
370
    25
100
AcDbLine
 10
-36.8684192055
 20
4.4375
 30
0.0
 11
-36.8841492088
 21
4.4421938851
 31
0.0
  0
LINE
  5
122
330
1B
100
AcDbEntity
 67
     1
  8
0
  6
Continuous
 62
     8
370
    25
100
AcDbLine
 10
36.8684192055
 20
4.4375
 30
0.0
 11
36.8841491928
 21
4.4421938803
 31
0.0
  0
LINE
  5
123
330
1B
100
AcDbEntity
 67
     1
  8
0
  6
Continuous
 62
     8
370
    25
100
AcDbLine
 10
45.4276497059
 20
2.0
 30
0.0
 11
45.4226866041
 21
2.0
 31
0.0
  0
ARC
  5
124
330
1B
100
AcDbEntity
 67
     1
  8
0
  6
Continuous
 62
     7
370
    25
100
AcDbCircle
 10
44.8509196999
 20
2.5028718189
 30
0.0
 40
0.4971366710833266
100
AcDbArc
 50
359.6690165372
 51
89.6651476015
  0
ARC
  5
125
330
1B
100
AcDbEntity
 67
     1
  8
0
  6
Continuous
 62
     7
370
    25
100
AcDbCircle
 10
-44.8509196999
 20
2.5028718189
 30
0.0
 40
0.4971366710833266
100
AcDbArc
 50
90.3348523985
 51
180.3309834628
  0
ARC
  5
126
330
1B
100
AcDbEntity
 67
     1
  8
0
  6
Continuous
 62
     7
370
    25
100
AcDbCircle
 10
28.4138705964
 20
10.747885538
 30
0.0
 40
1.752124359782472
100
AcDbArc
 50
54.0714253406
 51
89.8074141253
  0
ARC
  5
127
330
1B
100
AcDbEntity
 67
     1
  8
0
  6
Continuous
 62
     7
370
    25
100
AcDbCircle
 10
-28.4138705964
 20
10.747885538
 30
0.0
 40
1.752124359782467
100
AcDbArc
 50
90.1925858747
 51
125.9285746594
  0
ARC
  5
128
330
1B
100
AcDbEntity
 67
     1
  8
0
  6
Continuous
 62
     7
370
    25
100
AcDbCircle
 10
-27.9071873457
 20
12.5429549105
 30
0.0
 40
1.00151227620365
100
AcDbArc
 50
32.8206998621
 51
81.5136538216
  0
ARC
  5
129
330
1B
100
AcDbEntity
 67
     1
  8
0
  6
Continuous
 62
     7
370
    25
100
AcDbCircle
 10
27.9071873457
 20
12.5429549105
 30
0.0
 40
1.001512276203652
100
AcDbArc
 50
98.4863461784
 51
147.1793001379
  0
VIEWPORT
  5
374
330
1B
100
AcDbEntity
 67
     1
  8
0
100
AcDbViewport
 10
0.0
 20
0.0
 30
0.0
 40
205.6
 41
156.0
 68
     1
 69
     1
 12
0.0
 22
-20.0
 13
0.0
 23
0.0
 14
10.0
 24
10.0
 15
10.0
 25
10.0
 16
0.0
 26
0.0
 36
1.0
 17
0.0
 27
0.0
 37
0.0
 42
50.0
 43
0.0
 44
0.0
 45
70.3156390604
 50
0.0
 51
0.0
 72
   100
 90
   557152
  1

281
     0
 71
     1
 74
     0
110
0.0
120
0.0
130
0.0
111
1.0
121
0.0
131
0.0
112
0.0
122
1.0
132
0.0
 79
     0
146
0.0
  0
ENDSEC
  0
SECTION
  2
OBJECTS
  0
DICTIONARY
  5
C
330
0
100
AcDbDictionary
281
     1
  3
ACAD_GROUP
350
D
  3
ACAD_LAYOUT
350
1A
  3
ACAD_MLINESTYLE
350
17
  3
ACAD_PLOTSETTINGS
350
19
  3
ACAD_PLOTSTYLENAME
350
E
  3
ACAD_SCALELIST
350
47
  0
DICTIONARY
  5
D
102
{ACAD_REACTORS
330
C
102
}
330
C
100
AcDbDictionary
281
     1
  0
DICTIONARY
  5
1A
102
{ACAD_REACTORS
330
C
102
}
330
C
100
AcDbDictionary
281
     1
  3
_Back
350
20F
  3
_Bottom
350
16B
  3
_Dimetric
350
30E
  3
_Isometric
350
243
  3
_Left
350
26
  3
_Right
350
1CB
  3
_Top
350
1E
  3
_Trimetric
350
2A9
  3
Model
350
22
  0
DICTIONARY
  5
17
102
{ACAD_REACTORS
330
C
102
}
330
C
100
AcDbDictionary
281
     1
  3
Standard
350
18
  0
DICTIONARY
  5
19
102
{ACAD_REACTORS
330
C
102
}
330
C
100
AcDbDictionary
281
     1
  0
ACDBDICTIONARYWDFLT
  5
E
102
{ACAD_REACTORS
330
C
102
}
330
C
100
AcDbDictionary
281
     1
  3
Normal
350
F
100
AcDbDictionaryWithDefault
340
F
  0
DICTIONARY
  5
47
102
{ACAD_REACTORS
330
C
102
}
330
C
100
AcDbDictionary
281
     1
  3
A0
350
48
  3
A1
350
49
  3
A2
350
4A
  3
A3
350
4B
  3
A4
350
4C
  3
A5
350
4D
  3
A6
350
4E
  3
A7
350
4F
  3
A8
350
50
  3
A9
350
51
  3
B0
350
52
  3
B1
350
53
  3
B2
350
54
  3
B3
350
55
  3
B4
350
56
  3
B5
350
57
  3
B6
350
58
  3
B7
350
59
  3
B8
350
5A
  3
B9
350
5B
  3
C0
350
5C
  3
C1
350
5D
  3
C2
350
5E
  3
C3
350
5F
  3
C4
350
60
  3
C5
350
61
  3
C6
350
62
  3
C7
350
63
  3
C8
350
64
  3
C9
350
65
  3
D0
350
66
  3
D1
350
67
  3
D2
350
68
  0
LAYOUT
  5
20F
102
{ACAD_REACTORS
330
1A
102
}
330
1A
100
AcDbPlotSettings
  1

  2
none_device
  4
ISO_A4_(210.00_x_297.00_MM)
  6

 40
7.5
 41
20.0
 42
7.5
 43
20.0
 44
210.0
 45
297.0
 46
0.0
 47
0.0
 48
0.0
 49
0.0
140
0.0
141
0.0
142
1.0
143
0.3535225694
 70
   688
 72
     1
 73
     1
 74
     1
  7

 75
     0
147
2.8286737155
148
45.4276501722
149
8.0
100
AcDbLayout
  1
_Back
 70
     1
 71
     5
 10
0.0
 20
0.0
 11
0.0
 21
0.0
 12
0.0
 22
0.0
 32
0.0
 14
0.0
 24
0.0
 34
0.0
 15
0.0
 25
0.0
 35
0.0
146
0.0
 13
0.0
 23
0.0
 33
0.0
 16
1.0
 26
0.0
 36
0.0
 17
0.0
 27
1.0
 37
0.0
 76
     0
330
20E
331
37C
  0
LAYOUT
  5
16B
102
{ACAD_REACTORS
330
1A
102
}
330
1A
100
AcDbPlotSettings
  1

  2
none_device
  4
ISO_A4_(210.00_x_297.00_MM)
  6

 40
7.5
 41
20.0
 42
7.5
 43
20.0
 44
210.0
 45
297.0
 46
0.0
 47
0.0
 48
0.0
 49
0.0
140
0.0
141
0.0
142
1.0
143
0.3535225694
 70
   688
 72
     1
 73
     1
 74
     1
  7

 75
     0
147
2.8286737155
148
45.4276501722
149
8.0
100
AcDbLayout
  1
_Bottom
 70
     1
 71
     3
 10
0.0
 20
0.0
 11
0.0
 21
0.0
 12
0.0
 22
0.0
 32
0.0
 14
0.0
 24
0.0
 34
0.0
 15
0.0
 25
0.0
 35
0.0
146
0.0
 13
0.0
 23
0.0
 33
0.0
 16
1.0
 26
0.0
 36
0.0
 17
0.0
 27
1.0
 37
0.0
 76
     0
330
16A
331
378
  0
LAYOUT
  5
30E
102
{ACAD_REACTORS
330
1A
102
}
330
1A
100
AcDbPlotSettings
  1

  2
none_device
  4
ISO_A4_(210.00_x_297.00_MM)
  6

 40
7.5
 41
20.0
 42
7.5
 43
20.0
 44
210.0
 45
297.0
 46
0.0
 47
0.0
 48
0.0
 49
0.0
140
0.0
141
0.0
142
1.0
143
0.3535225694
 70
   688
 72
     1
 73
     1
 74
     1
  7

 75
     0
147
2.8286737155
148
45.4276501722
149
8.0
100
AcDbLayout
  1
_Dimetric
 70
     1
 71
     8
 10
0.0
 20
0.0
 11
0.0
 21
0.0
 12
0.0
 22
0.0
 32
0.0
 14
0.0
 24
0.0
 34
0.0
 15
0.0
 25
0.0
 35
0.0
146
0.0
 13
0.0
 23
0.0
 33
0.0
 16
1.0
 26
0.0
 36
0.0
 17
0.0
 27
1.0
 37
0.0
 76
     0
330
30D
331
382
  0
LAYOUT
  5
243
102
{ACAD_REACTORS
330
1A
102
}
330
1A
100
AcDbPlotSettings
  1

  2
none_device
  4
ISO_A4_(210.00_x_297.00_MM)
  6

 40
7.5
 41
20.0
 42
7.5
 43
20.0
 44
210.0
 45
297.0
 46
0.0
 47
0.0
 48
0.0
 49
0.0
140
0.0
141
0.0
142
1.0
143
0.3535225694
 70
   688
 72
     1
 73
     1
 74
     1
  7

 75
     0
147
2.8286737155
148
45.4276501722
149
8.0
100
AcDbLayout
  1
_Isometric
 70
     1
 71
     6
 10
0.0
 20
0.0
 11
0.0
 21
0.0
 12
0.0
 22
0.0
 32
0.0
 14
0.0
 24
0.0
 34
0.0
 15
0.0
 25
0.0
 35
0.0
146
0.0
 13
0.0
 23
0.0
 33
0.0
 16
1.0
 26
0.0
 36
0.0
 17
0.0
 27
1.0
 37
0.0
 76
     0
330
242
331
37E
  0
LAYOUT
  5
26
102
{ACAD_REACTORS
330
1A
102
}
330
1A
100
AcDbPlotSettings
  1

  2
none_device
  4
ISO_A4_(210.00_x_297.00_MM)
  6

 40
7.5
 41
20.0
 42
7.5
 43
20.0
 44
210.0
 45
297.0
 46
0.0
 47
0.0
 48
0.0
 49
0.0
140
0.0
141
0.0
142
1.0
143
0.3535225694
 70
   688
 72
     1
 73
     1
 74
     1
  7

 75
     0
147
2.8286737155
148
45.4276501722
149
8.0
100
AcDbLayout
  1
_Left
 70
     1
 71
     2
 10
0.0
 20
0.0
 11
0.0
 21
0.0
 12
0.0
 22
0.0
 32
0.0
 14
0.0
 24
0.0
 34
0.0
 15
0.0
 25
0.0
 35
0.0
146
0.0
 13
0.0
 23
0.0
 33
0.0
 16
1.0
 26
0.0
 36
0.0
 17
0.0
 27
1.0
 37
0.0
 76
     0
330
23
331
376
  0
LAYOUT
  5
1CB
102
{ACAD_REACTORS
330
1A
102
}
330
1A
100
AcDbPlotSettings
  1

  2
none_device
  4
ISO_A4_(210.00_x_297.00_MM)
  6

 40
7.5
 41
20.0
 42
7.5
 43
20.0
 44
210.0
 45
297.0
 46
0.0
 47
0.0
 48
0.0
 49
0.0
140
0.0
141
0.0
142
1.0
143
0.3535225694
 70
   688
 72
     1
 73
     1
 74
     1
  7

 75
     0
147
2.8286737155
148
45.4276501722
149
8.0
100
AcDbLayout
  1
_Right
 70
     1
 71
     4
 10
0.0
 20
0.0
 11
0.0
 21
0.0
 12
0.0
 22
0.0
 32
0.0
 14
0.0
 24
0.0
 34
0.0
 15
0.0
 25
0.0
 35
0.0
146
0.0
 13
0.0
 23
0.0
 33
0.0
 16
1.0
 26
0.0
 36
0.0
 17
0.0
 27
1.0
 37
0.0
 76
     0
330
1CA
331
37A
  0
LAYOUT
  5
1E
102
{ACAD_REACTORS
330
1A
102
}
330
1A
100
AcDbPlotSettings
  1

  2
none_device
  4
ISO_A4_(210.00_x_297.00_MM)
  6

 40
7.5
 41
20.0
 42
7.5
 43
20.0
 44
210.0
 45
297.0
 46
0.0
 47
0.0
 48
0.0
 49
0.0
140
0.0
141
0.0
142
1.0
143
0.3535225694
 70
   688
 72
     1
 73
     1
 74
     1
  7

 75
     0
147
2.8286737155
148
45.4276501722
149
8.0
100
AcDbLayout
  1
_Top
 70
     1
 71
     1
 10
-52.4981015609
 20
-10.6514192708
 11
52.4981015609
 21
63.5883203104
 12
0.0
 22
0.0
 32
0.0
 14
-45.4276501722
 24
-8.0
 34
0.0
 15
45.4276501722
 25
14.5
 35
0.0
146
0.0
 13
0.0
 23
0.0
 33
0.0
 16
1.0
 26
0.0
 36
0.0
 17
0.0
 27
1.0
 37
0.0
 76
     0
330
1B
331
374
  0
LAYOUT
  5
2A9
102
{ACAD_REACTORS
330
1A
102
}
330
1A
100
AcDbPlotSettings
  1

  2
none_device
  4
ISO_A4_(210.00_x_297.00_MM)
  6

 40
7.5
 41
20.0
 42
7.5
 43
20.0
 44
210.0
 45
297.0
 46
0.0
 47
0.0
 48
0.0
 49
0.0
140
0.0
141
0.0
142
1.0
143
0.3535225694
 70
   688
 72
     1
 73
     1
 74
     1
  7

 75
     0
147
2.8286737155
148
45.4276501722
149
8.0
100
AcDbLayout
  1
_Trimetric
 70
     1
 71
     7
 10
0.0
 20
0.0
 11
0.0
 21
0.0
 12
0.0
 22
0.0
 32
0.0
 14
0.0
 24
0.0
 34
0.0
 15
0.0
 25
0.0
 35
0.0
146
0.0
 13
0.0
 23
0.0
 33
0.0
 16
1.0
 26
0.0
 36
0.0
 17
0.0
 27
1.0
 37
0.0
 76
     0
330
2A8
331
380
  0
LAYOUT
  5
22
102
{ACAD_REACTORS
330
1A
102
}
330
1A
100
AcDbPlotSettings
  1

  2
none_device
  4
ANSI_A_(11.00_x_8.50_Inches)
  6

 40
6.35
 41
19.05
 42
6.35000508
 43
19.05000254
 44
279.4
 45
215.9
 46
133.34999746
 47
149.7893467265
 48
0.0
 49
0.0
140
0.0
141
0.0
142
0.1198609213
143
1.0
 70
  1696
 72
     0
 73
     0
 74
     0
  7

 75
     0
147
0.0179189148
148
-1300.4909072572
149
0.0
100
AcDbLayout
  1
Model
 70
     1
 71
     0
 10
0.0
 20
0.0
 11
420.0
 21
297.0
 12
0.0
 22
0.0
 32
0.0
 14
-45.4276501722
 24
-40.0
 34
0.0
 15
45.4276501722
 25
0.0
 35
0.0
146
0.0
 13
0.0
 23
0.0
 33
0.0
 16
1.0
 26
0.0
 36
0.0
 17
0.0
 27
1.0
 37
0.0
 76
     0
330
1F
331
29
  0
MLINESTYLE
  5
18
102
{ACAD_REACTORS
330
17
102
}
330
17
100
AcDbMlineStyle
  2
Standard
 70
     0
  3

 62
   256
 51
90.0
 52
90.0
 71
     2
 49
0.5
 62
   256
  6
BYLAYER
 49
-0.5
 62
   256
  6
BYLAYER
  0
ACDBPLACEHOLDER
  5
F
102
{ACAD_REACTORS
330
E
102
}
330
E
  0
SCALE
  5
48
102
{ACAD_REACTORS
330
47
102
}
330
47
100
AcDbScale
 70
     0
300
1:1
140
1.0
141
1.0
290
     1
  0
SCALE
  5
49
102
{ACAD_REACTORS
330
47
102
}
330
47
100
AcDbScale
 70
     0
300
1:2
140
1.0
141
2.0
290
     0
  0
SCALE
  5
4A
102
{ACAD_REACTORS
330
47
102
}
330
47
100
AcDbScale
 70
     0
300
1:4
140
1.0
141
4.0
290
     0
  0
SCALE
  5
4B
102
{ACAD_REACTORS
330
47
102
}
330
47
100
AcDbScale
 70
     0
300
1:5
140
1.0
141
5.0
290
     0
  0
SCALE
  5
4C
102
{ACAD_REACTORS
330
47
102
}
330
47
100
AcDbScale
 70
     0
300
1:8
140
1.0
141
8.0
290
     0
  0
SCALE
  5
4D
102
{ACAD_REACTORS
330
47
102
}
330
47
100
AcDbScale
 70
     0
300
1:10
140
1.0
141
10.0
290
     0
  0
SCALE
  5
4E
102
{ACAD_REACTORS
330
47
102
}
330
47
100
AcDbScale
 70
     0
300
1:16
140
1.0
141
16.0
290
     0
  0
SCALE
  5
4F
102
{ACAD_REACTORS
330
47
102
}
330
47
100
AcDbScale
 70
     0
300
1:20
140
1.0
141
20.0
290
     0
  0
SCALE
  5
50
102
{ACAD_REACTORS
330
47
102
}
330
47
100
AcDbScale
 70
     0
300
1:30
140
1.0
141
30.0
290
     0
  0
SCALE
  5
51
102
{ACAD_REACTORS
330
47
102
}
330
47
100
AcDbScale
 70
     0
300
1:40
140
1.0
141
40.0
290
     0
  0
SCALE
  5
52
102
{ACAD_REACTORS
330
47
102
}
330
47
100
AcDbScale
 70
     0
300
1:50
140
1.0
141
50.0
290
     0
  0
SCALE
  5
53
102
{ACAD_REACTORS
330
47
102
}
330
47
100
AcDbScale
 70
     0
300
1:100
140
1.0
141
100.0
290
     0
  0
SCALE
  5
54
102
{ACAD_REACTORS
330
47
102
}
330
47
100
AcDbScale
 70
     0
300
2:1
140
2.0
141
1.0
290
     0
  0
SCALE
  5
55
102
{ACAD_REACTORS
330
47
102
}
330
47
100
AcDbScale
 70
     0
300
4:1
140
4.0
141
1.0
290
     0
  0
SCALE
  5
56
102
{ACAD_REACTORS
330
47
102
}
330
47
100
AcDbScale
 70
     0
300
8:1
140
8.0
141
1.0
290
     0
  0
SCALE
  5
57
102
{ACAD_REACTORS
330
47
102
}
330
47
100
AcDbScale
 70
     0
300
10:1
140
10.0
141
1.0
290
     0
  0
SCALE
  5
58
102
{ACAD_REACTORS
330
47
102
}
330
47
100
AcDbScale
 70
     0
300
100:1
140
100.0
141
1.0
290
     0
  0
SCALE
  5
59
102
{ACAD_REACTORS
330
47
102
}
330
47
100
AcDbScale
 70
     0
300
1/128" = 1'-0"
140
0.0078125
141
12.0
290
     0
  0
SCALE
  5
5A
102
{ACAD_REACTORS
330
47
102
}
330
47
100
AcDbScale
 70
     0
300
1/64" = 1'-0"
140
0.015625
141
12.0
290
     0
  0
SCALE
  5
5B
102
{ACAD_REACTORS
330
47
102
}
330
47
100
AcDbScale
 70
     0
300
1/32" = 1'-0"
140
0.03125
141
12.0
290
     0
  0
SCALE
  5
5C
102
{ACAD_REACTORS
330
47
102
}
330
47
100
AcDbScale
 70
     0
300
1/16" = 1'-0"
140
0.0625
141
12.0
290
     0
  0
SCALE
  5
5D
102
{ACAD_REACTORS
330
47
102
}
330
47
100
AcDbScale
 70
     0
300
3/32" = 1'-0"
140
0.09375
141
12.0
290
     0
  0
SCALE
  5
5E
102
{ACAD_REACTORS
330
47
102
}
330
47
100
AcDbScale
 70
     0
300
1/8" = 1'-0"
140
0.125
141
12.0
290
     0
  0
SCALE
  5
5F
102
{ACAD_REACTORS
330
47
102
}
330
47
100
AcDbScale
 70
     0
300
3/16" = 1'-0"
140
0.1875
141
12.0
290
     0
  0
SCALE
  5
60
102
{ACAD_REACTORS
330
47
102
}
330
47
100
AcDbScale
 70
     0
300
1/4" = 1'-0"
140
0.25
141
12.0
290
     0
  0
SCALE
  5
61
102
{ACAD_REACTORS
330
47
102
}
330
47
100
AcDbScale
 70
     0
300
3/8" = 1'-0"
140
0.375
141
12.0
290
     0
  0
SCALE
  5
62
102
{ACAD_REACTORS
330
47
102
}
330
47
100
AcDbScale
 70
     0
300
1/2" = 1'-0"
140
0.5
141
12.0
290
     0
  0
SCALE
  5
63
102
{ACAD_REACTORS
330
47
102
}
330
47
100
AcDbScale
 70
     0
300
3/4" = 1'-0"
140
0.75
141
12.0
290
     0
  0
SCALE
  5
64
102
{ACAD_REACTORS
330
47
102
}
330
47
100
AcDbScale
 70
     0
300
1" = 1'-0"
140
1.0
141
12.0
290
     0
  0
SCALE
  5
65
102
{ACAD_REACTORS
330
47
102
}
330
47
100
AcDbScale
 70
     0
300
1-1/2" = 1'-0"
140
1.5
141
12.0
290
     0
  0
SCALE
  5
66
102
{ACAD_REACTORS
330
47
102
}
330
47
100
AcDbScale
 70
     0
300
3" = 1'-0"
140
3.0
141
12.0
290
     0
  0
SCALE
  5
67
102
{ACAD_REACTORS
330
47
102
}
330
47
100
AcDbScale
 70
     0
300
6" = 1'-0"
140
6.0
141
12.0
290
     0
  0
SCALE
  5
68
102
{ACAD_REACTORS
330
47
102
}
330
47
100
AcDbScale
 70
     0
300
1'-0" = 1'-0"
140
12.0
141
12.0
290
     0
  0
ENDSEC
  0
EOF
